Song name
# A B C D E F G H I J K L M N O P Q R S T U V W X Y Z

New Heights - Dear tab

Capo on 1st

Intro
e|-----------------|
B|---------0-------|
G|-----0-----0---0-|x4
D|---0---0-----0---|
A|-----------------|
E|-3---------------|

Chorus
e|-----------------|-----------------|-----------------|-----------------|
B|---------0-------|---------1-------|---------3-------|-------0-------0-|
G|-----0-----0---0-|-----0-----0---0-|-----0-----0---0-|-----0-------2---|
D|---2---2-----2---|---2---2-----2---|---4---4-----4---|---0-------0-----|
A|-----------------|-3---------------|/5---------------|-----------------|
E|-0---------------|-----------------|-----------------|-3-------2-------|

e|-----------------|-----------------|-----------------|-----------------|
B|---------0-------|---------1-------|---------3-------|---------0-------|
G|-----0-----0---0-|-----0-----0---0-|-----0-----0---0-|-----0-----0---0-|
D|---2---2-----2---|---2---2-----2---|---4---4-----4---|---0---0-----0---|
A|-----------------|-3---------------|/5---------------|-2---------------|
E|-0---------------|-----------------|-----------------|-----------------|

e|-----------------|-----------------|-----------------|-----------------|
B|---------0-------|---------1-------|---------3-------|---------0-------|
G|-----0-----0---0-|-----0-----0---0-|-----0-----0---0-|-----0-----0---0-|
D|---2---2-----2---|---2---2-----2---|---4---4-----4---|---0---0-----0---|
A|-----------------|-3---------------|/5---------------|-----------------|
E|-0---------------|-----------------|-----------------|-3---------------|

Verse
e|-----------------|-----------------|-----------------|-----------------|
B|---------0-------|---------0-------|-------0---------|-0-------------0-|
G|-----0-----0---0-|-----0-----0---0-|-----0-------0---|---0---0-----0---|
D|---0---0-----0---|---0---0-----0---|---2-------0---0-|-----0-----2-----|
A|-----------------|-----------------|-3---------------|---------3-------|
E|-3---------------|-3---------------|---------3-------|-----------------|

e|-----------------|-----------------|-----------------|-----------------|
B|---------0-------|-------0---------|-0-------------0-|---------0-------|
G|-----0-----0---0-|-----0-------0---|---0---0-----0---|-----0-----0---0-|
D|---0---0-----0---|---4-------4---4-|-----4-----2-----|---0---0-----0---|
A|-----------------|-5-------5-------|---------3-------|-----------------|
E|-3---------------|-----------------|-----------------|-3---------------|

e|-----------------|-----------------|-----------------|-----------------|
B|---------0-------|---------0-------|-------0---------|-0-------------0-|
G|-----0-----0---0-|-----0-----0---0-|-----0-------0---|---0---0-----0---|
D|---0---0-----0---|---0---0-----0---|---2-------0---0-|-----0-----2-----|
A|-----------------|-----------------|-3---------------|---------3-------|
E|-3---------------|-3---------------|---------3-------|-----------------|

e|-----------------|-----------------|-----------------|-----------------|
B|---------0-------|-------0---------|-0-------------0-|---------0-------|
G|-----0-----0---0-|-----0-------0---|---0---0-----0---|-----0-----0---0-|
D|---0---0-----0---|---4-------4---4-|-----4-----2-----|---0---0-----0---|
A|-----------------|-5-------5-------|---------3-------|-----------------|
E|-3---------------|-----------------|-----------------|-3---------------|

e|-----------------|
B|-----0---------0-|
G|---0---0-----0---|
D|-----------4-----|
A|---------5-------|
E|-3---------------|

Chorus
e|-----------------|-----------------|-----------------|-----------------|
B|---------0-------|---------1-------|---------3-------|-------0-------0-|
G|-----0-----0---0-|-----0-----0---0-|-----0-----0---0-|-----0-------2---|
D|---2---2-----2---|---2---2-----2---|---4---4-----4---|---0-------0-----|
A|-----------------|-3---------------|/5---------------|-----------------|
E|-0---------------|-----------------|-----------------|-3-------2-------|

e|-----------------|-----------------|-----------------|-----------------|
B|---------0-------|---------1-------|---------3-------|---------0-------|
G|-----0-----0---0-|-----0-----0---0-|-----0-----0---0-|-----0-----0---0-|
D|---2---2-----2---|---2---2-----2---|---4---4-----4---|---0---0-----0---|
A|-----------------|-3---------------|/5---------------|-2---------------|
E|-0---------------|-----------------|-----------------|-----------------|

e|-----------------|-----------------|-----------------|-----------------|
B|---------0-------|---------1-------|---------3-------|---------0-------|
G|-----0-----0---0-|-----0-----0---0-|-----0-----0---0-|-----0-----0---0-|
D|---2---2-----2---|---2---2-----2---|---4---4-----4---|---0---0-----0---|
A|-----------------|-3---------------|/5---------------|-----------------|
E|-0---------------|-----------------|-----------------|-3---------------|

Verse
e|-----------------|-----------------|-----------------|-----------------|
B|---------0-------|---------0-------|-------0---------|-0-------------0-|
G|-----0-----0---0-|-----0-----0---0-|-----0-------0---|---0---0-----0---|
D|---0---0-----0---|---0---0-----0---|---2-------0---0-|-----0-----2-----|
A|-----------------|-----------------|-3---------------|---------3-------|
E|-3---------------|-3---------------|---------3-------|-----------------|

e|-----------------|-----------------|-----------------|-----------------|
B|---------0-------|-------0---------|-0-------------0-|---------0-------|
G|-----0-----0---0-|-----0-------0---|---0---0-----0---|-----0-----0---0-|
D|---0---0-----0---|---4-------4---4-|-----4-----2-----|---0---0-----0---|
A|-----------------|-5-------5-------|---------3-------|-----------------|
E|-3---------------|-----------------|-----------------|-3---------------|

e|-----------------|-----------------|-----------------|
B|---------0-------|-------0---------|-0-------------0-|
G|-----0-----0---0-|-----0-------0---|---0---0-----0---|
D|---0---0-----0---|---2-------0---0-|-----0-----2-----|
A|-----------------|-3---------------|---------3-------|
E|-3---------------|---------3-------|-----------------|

e|-----------------|-----------------|-----------------|-----------------|
B|---------0-------|-------0---------|-0-------------0-|---------0-------|
G|-----0-----0---0-|-----0-------0---|---0---0-----0---|-----0-----0---0-|
D|---0---0-----0---|---4-------4---4-|-----4-----2-----|---0---0-----0---|
A|-----------------|-5-------5-------|---------3-------|-----------------|
E|-3---------------|-----------------|-----------------|-3---------------|

e|-----------------|
B|---------0-------|
G|-----0-----0---0-|
D|---0---0-----0---|
A|-----------------|
E|-3---------------|

Bridge
e|-----------------|-----------------|-----------------|-----------------|
B|---------3-------|---------0-------|---------1-------|---------0-------|
G|-----0-----0---0-|-----0-----0---0-|-----0-----0---0-|-----0-----0---0-|x3
D|---4---4-----4---|---2---2-----2---|---2---2-----2---|---0---0-----0---|
A|-5---------------|-----------------|-3---------------|-----------------|
E|-----------------|-0---------------|-----------------|-3---------------|

e|-----------------|-----------------|-----------------|-----------------|
B|---------3-------|---------0-------|---------1-------|-----------------|
G|-----0-----0---0-|-----0-----0---0-|-----0-----0---0-|-----0-------0---|
D|---4---4-----4---|---2---2-----2---|---2---2-----2---|---0---0---0---0-|
A|-5---------------|-----------------|-3---------------|-----------------|
E|-----------------|-0---------------|-----------------|-3-------2-------|

e|-----------------|-----------------|-----------------|-----------------|
B|---------0-------|---------0-------|---------0-------|---------0-------|
G|-----0-----0---0-|-----0-----0---0-|-----0-----0---0-|-----0-----0---0-|x2
D|---2---2-----2---|---2---2-----2---|---0---0-----0---|---4---0-----0---|
A|-----------------|-3---------------|-----------------|-5---------------|
E|-0---------------|-----------------|-3---------------|-----------------|

e|-----------------|-----------------|-----------------|-----------------|
B|---------0-------|---------1-------|---------0-------|-------0---------|
G|-----0-----0---0-|-----0-----0---0-|-----0-----0---0-|---0-----0---0---|
D|---2---2-----2---|---2---2-----2---|---4---4-----4---|-4---4-----0---0-|
A|-----------------|-3---------------|/5---------------|-----------------|
E|-0---------------|-----------------|-----------------|-----------------|

Chorus/Outro
e|-----------------|-----------------|-----------------|-----------------|
B|---------0-------|---------1-------|---------3-------|-------0-------0-|
G|-----0-----0---0-|-----0-----0---0-|-----0-----0---0-|-----0-------2---|
D|---2---2-----2---|---2---2-----2---|---4---4-----4---|---0-------0-----|
A|-----------------|-3---------------|/5---------------|-----------------|
E|-0---------------|-----------------|-----------------|-3-------2-------|

e|-----------------|-----------------|-----------------|-----------------|
B|---------0-------|---------1-------|---------3-------|---------0-------|
G|-----0-----0---0-|-----0-----0---0-|-----0-----0---0-|-----0-----0---0-|
D|---2---2-----2---|---2---2-----2---|---4---4-----4---|---0---0-----0---|
A|-----------------|-3---------------|/5---------------|-2---------------|
E|-0---------------|-----------------|-----------------|-----------------|

e|-----------------|-----------------|-----------------|-----------------|
B|---------0-------|---------1-------|---------3-------|---------0-------|
G|-----0-----0---0-|-----0-----0---0-|-----0-----0---0-|-----0-----0---0-|
D|---2---2-----2---|---2---2-----2---|---4---4-----4---|---0---0-----0---|
A|-----------------|-3---------------|/5---------------|-----------------|
E|-0---------------|-----------------|-----------------|-3---------------|

e|-----------------|-----------------|-----------------|-----------------|
B|---------0-------|---------1-------|---------3-------|-0---------------|
G|-----0-----0---0-|-----0-----0---0-|-----0-----0---0-|-0---------------|
D|---2---2-----2---|---2---2-----2---|---4---4-----4---|-0---------------|
A|-----------------|-3---------------|/5---------------|-----------------|
E|-0---------------|-----------------|-----------------|-3---------------|
Tap to rate this tab
# A B C D E F G H I J K L M N O P Q R S T U V W X Y Z