Song name
# A B C D E F G H I J K L M N O P Q R S T U V W X Y Z

New Hollow - She Aint You chords

-------------------------------------------------------------------------------
                              She Aint You
                            - New Hollow
-------------------------------------------------------------------------------
Tabbed by: phga

Guitar parts as figured from watching a live performance on YouTube by New Hollow

I've included both the picking, (which is how its played by the lead) and the chords
(which is played by the back up during verses and is easier to sing
with) as well as the words so you can sing your heart out

Tuning: Standard

--A's are easiest played as an F shape bar chord on 5th fret
--B*'s are B's that are easier played as an F shape bar chord on 7th fret


Intro/ Verse 1:

    Back up guitar plays a high accenting part
    in the beginning that goes like this:

    e|----12------------14--12------------11--12----------|
    B|----------------------------------------------------|
    G|----------------------------------------------------|
    D|----------------------------------------------------|
    A|----------------------------------------------------|
    E|----------------------------------------------------|

Lead

e|----------------------------------------------------|
B|----------------------------------------------------|
G|----------------------------------------------------|  Repeat throughout
D|--------6--------6-----6--------6-----------9--6----|  verses
A|------7-------7-----7--------7-----7-----6----------|
E|----0------0--------------9-----------7-------------|


              ---OR---
E                        C#m       B
  Its been a while since I saw your face
E                             C#m       B
  Maybe that's helped me move on
E                        C#m      B
  But I met a girl not a day too late
E                        C#m       B
  And of her I'm awfully fond


       E          C#m         B
And I hope my remedies don't show
       E             C#m     B
As I try to, try to, let you go
             E           C#m      B
Cause its awkward, oh so hard to see
      A      B*
The similarities


Chorus 1:

                C#m                      A     
She's got your hair, and she's got your eyes,
                          E                    B
      and she's got your exact same horoscope sign,
            C#m                     A    
She may be pretty, she's something new,
                           E          B
      but that means nothing..... 

She aint you


Verse 2:

e|----------------------------------------------------|
B|----------------------------------------------------|
G|----------------------------------------------------|  Repeat throughout
D|--------6--------6-----6--------6-----------9--6----|  verses
A|------7-------7-----7--------7-----7-----6----------|
E|----0------0--------------9-----------7-------------|

                   ---OR---
E                       C#m        B
  I find it hard not to look your way
E                       C#m        B
  But I get in what I can
E                             C#m      B
  And I find this song just a bit cliché
E                              C#m        B
  But I pray that you'll understand

                E            C#m      B
That there's nothing(nothing)on her mind
           E                 C#m      B
and she's far too, (far too) far too kind
         E              C#m       B
if you miss me, kiss me one more time
     A                 B*
at least for old time sake


Chorus 1:

                C#m                      A     
She's got your hair, and she's got your eyes,
                          E                    B
      and she's got your exact same horoscope sign,
            C#m                     A    
She may be pretty, she's something new,
                           E          B
      but that means nothing..... 

She aint you



INSTRUMENTAL 

-just continue playing C#m A E and B



Chorus 2: (lightly)

                C#m                      A     
She's got your hair, and she's got your eyes,
                          E                    B
      and she's got your nineties sweatshirt style,
            C#m                     A    
She may be pretty, she's something new,
                           E          B
      but that means nothing..... 


Chorus 1:

                C#m                      A     
She's got your hair, and she's got your eyes,
                          E                    B
      and she's got your exact same horoscope sign,
            C#m                    A    
She may be pretty, she's something new,
                           E          B
      but that means nothing..... 

She aint you


Outro:

C#m A E B over and over again till end

Oh oh oh oh oh oh oh oh etc.

She Aint you



END
Tap to rate this tab
 
# A B C D E F G H I J K L M N O P Q R S T U V W X Y Z