Song name
# A B C D E F G H I J K L M N O P Q R S T U V W X Y Z

New Order - Dreams Never End tab

Guitar 1
e------------------------------------------------------------------|
b------------------------------------------------------------------|
g-------------------------------------4-----4---4------4-----4---4-|
d-----2---2---2------2---2---2---2-2----2-2---2---2-2----2-2---2---|
a-5-5---5---5---54-4---4---4---4-----------------------------------|
e------------------------------------------------------------------|
repeat throughout intro

Guitar 2 DROP D (i think its actually the bass)
this guitar does not need to be in drop d, but it sounds better when you slide,so thats 
i tabbed it.

e-----------------------------------------------|
b-----------------------------------------------|
g-----------------------------------------------|
d-----------------------------------------------|
a-----------------------------------------------|
d-12-11-11\2---4-4\12---12-11--11\2------2------|

e-----------------------------------------------|
b-----------------------------------------------|
g-----------------------------------------------|
d-12-11-11\2---4-4\12---12-11--11\2------2------|
a-----------------------------------------------|
d-----------------------------------------------|

Then the main mart of song stars with
e----------------------|
b----------------------|
g-5-5-5-555--7-7-7-777-|
d-5-5-5-555--7-7-7-777-|   X3
a-7-7-7-777--9-9-9-999-|
e----------------------|


e-------12-|
b----14----|
g-14-------|
d----------|  X3
a----------|
e----------|

Verse

e---------------------------|
b---------------------------|
g---------------------------|
d-7-99-99--7-9--7-99-99-7-9-|
a-0-00-00--0-0--5-55-55-5-5-|
e---------------------------|all palm muted

Until

e-----------------------------------2-|
b------------------3----------------3-|
g-9-7-6-4-6----4---3----------------2-|
d------------------3----------------0-|
a------------------0------------------|
e-------------------------------------| chord strumming not shown,

Thats about it, any comments, email to philkop@gmail.com
Tap to rate this tab
 
# A B C D E F G H I J K L M N O P Q R S T U V W X Y Z