Song name
# A B C D E F G H I J K L M N O P Q R S T U V W X Y Z

New Order - Blue Monday tab

Tabber:StratKid84
Song: Blue Monday by New Order
Tuning: Standard (EADGBE)

This is my first tab, and Iím 100% sure this tab is correct. Donít get confused with the 
keyboard in the intro, it sounds similar to guitar but its not, itís the keyboard.

Intro- Bass Drum intro for a while, keyboard, then bass comes in.


Vocals start (tell me how do I feelÖ.), then guitar comes in.

Intro guitar
E|------------------------------------------------------------------|
B|------------------------------------------------------------------|
G|------------------------------------------------------------------|
D|------------------------------------------------------------------|x2
A|------------------------------------------------------------------|
E|--5-555(gallop)-5-3-333(gallop)-0-000(gallop)-0--0-000(gallop)-0--|

Guitar stops for a little bit, then the main riff
E|---------------------------------------------------|
B|---------------------------------------------------|
G|---------------------------------------------------|
D|---------------------------------------------------| x2
A|--0-0-0-0-0-0-0-0-0------0ó-3-3-3ó3-3-3-3-3-3-5--0-|
E|----------------------3----------------------------|

Chorus
E|--------------------------------------------------|
B|--------------------------------------------------|
G|--------------------------------------------------|
D|--------------------------------------------------|
A|---5-5-3-5----------------------------------------| x2
E|--------------------------------------------------|

After 2nd time

 Verse
E|-------------------------------------------------------|
B|-------------------------------------------------------|
G|-------------------------------------------------------|
D|----5-5--3-3-------------------------------------------|
A|--------------------------------------------------|x1--|
E|-------------------------------------------------------|

*Repeat Chorus and Verse one more time

then
  Verse
E|--------------------------------------------------|
B|--------------------------------------------------|
G|--------------------------------------------------|
D|----53--3-----------------------------------------|
A|--------------------------------------------------|x1
E|--------------------------------------------------|
 Then
                                                        X2
E|--------------------------------------------------|
B|--------------------------------------------------|
G|--------------------------------------------------|x1
D|----5-5-3-0---------------------------------------|
A|--------------------------------------------------|
E|--------------------------------------------------|

Repeat intro.
Repeat chorus and verse x2

Repeat intro x2. Repeat intro once more but its a little different. it goes like this

E|-----------------------------------------------------------------|
B|-----------------------------------------------------------------|
G|-----------------------------------------------------------------|x
D|-----------------------------------------------------------------|
A|--0-0-0-0-0-0-0-0-0------5-5-5-5-5-5-5-5-5-3-3-3-0---------------|
E|---------------------3-------------------------------------------|




Long pause almost till end. Drums come in again=Outro

Outro- Repeat intro x2, then fades away.

Finished.


I hope you enjoyed this tab and learned something from it, I think it is a very good tab 
for it being my first one ever!!! I don't not take credit for this tab or any of its 
work for this instrument. The rights and work originally belong to the group New Order, not me.
Tap to rate this tab
 
# A B C D E F G H I J K L M N O P Q R S T U V W X Y Z