Song name
# A B C D E F G H I J K L M N O P Q R S T U V W X Y Z

New Orleans Swim Team - Assertion tab

-------------------------------------------------------------------------------
			     Assertion - New Orleans Swim Team
-------------------------------------------------------------------------------

Website : http://neworleansswimteam.bandcamp.com/
From the album : Sitting on Fences
Tabbed by: Jacob Ulickij
Email: NewOrleansSwimTeam@gmail.com

Tuning: EADGBe

Interesting note, every New Orleans Swim Team song was written and recorded without a D
string. Anyways, this tab is 100% accurate, and includes the simple orchestral parts as
well. Just keep in mind the Bb tuning of a trumpet if trying to put this tablature back 
onto it's orginal instrument.

Main Riff

e|---------------------------------------------------------------------------|
B|---------------------------------------------------------------------------|
G|---0--0--0--0---------7--7--7----------------------------------------------|
D|---------------------------------------------------------------------------|
A|--7--7--7--7--7/10\9---9--9--9--9/10---------------------------------------|
E|--0------------------------------------------------------------------------|

Violin

e|---------------------------------------------------------------------------|
B|---------------------------------------------------------------------------|
G|-0-0-0-0-0-0-0-0-0-0-0-0-0-0-0-0-------------------------------------------|
D|---------------------------------------------------------------------------|
A|---------------------------------------------------------------------------|
E|---------------------------------------------------------------------------|

Trumpet

e|-3~~~~~~~~~~~~~~~~~~~~~~~~~~~~~~-------------------------------------------|
B|---------------------------------------------------------------------------|
G|---------------------------------------------------------------------------|
D|---------------------------------------------------------------------------|
A|---------------------------------------------------------------------------|
E|---------------------------------------------------------------------------|

Transition

e|-7--5--7--3-----------7--5--7--3-------------------------------------------|
B|-8--7--8--3-----------8--7--8--3-------------------------------------------|
G|-0--0--0--0-----------0--0--0--0-------------------------------------------|
D|---------------------------------------------------------------------------|
A|---------------------------------------------------------------------------|
E|---------------------------------------------------------------------------|

(Main Riff)

Transition 2

e|-0---3---0---3-3-----------------------------------------------------------|
B|-0---3---0---3-2-----------------------------------------------------------|
G|-0---0---0---0-3-----------------------------------------------------------|
D|---------------------------------------------------------------------------|
A|-2---2---2---2-------------------------------------------------------------|
E|-0---3---0---3-------------------------------------------------------------|

Violin in Transition 2

e|---------------------------------------------------------------------------|
B|---------------3-----------------------------------------------------------|
G|-0---0---0---0-------------------------------------------------------------|
D|---------------------------------------------------------------------------|
A|---------------------------------------------------------------------------|
E|---------------------------------------------------------------------------|

Guitar 2 in final verse

e|-3-5-3----3-7-3------------------------------------------------------------|
B|-3--------3----------------------------------------------------------------|
G|-0--------0----------------------------------------------------------------|
D|---------------------------------------------------------------------------|
A|---------------------------------------------------------------------------|
E|---------------------------------------------------------------------------|



************************************

| /   slide up
| \   slide down
| h   hammer-on
| p   pull-off
| ~   vibrato
| +   harmonic
| x   Mute note
| b   Bend
| pb  Pre-bend
| br  Bend release
| pbr Pre-bend release
| brb Bend release bend

************************************
Tap to rate this tab
 
# A B C D E F G H I J K L M N O P Q R S T U V W X Y Z