Song name
# A B C D E F G H I J K L M N O P Q R S T U V W X Y Z

New Years Day - Who We Are tab

Hope Partlow - Who We Are
Tabbed by Buffy2ndSlayer

Intro:
E|---------------------------|
B|--------1--------0---------|
G|-----2---------------------| 2x and follow in verse. It variates here and
D|--2--------0--2------------|    there, but that's up to you ;)
A|---------------------------|
E|---------------------------|

Chords during Intro: Am C 2x

Verse 1 (in the song there's only the riff, but these are the chords):
Am            C         Am        C
I don't wanna put on my make up
Am            C         Am        C
Just like every girl in a magazine
Am            C         Am        C
That's not who I am when I wake up
Am            C        
That's not who I wanna be


Pre-chorus:
Am 	        C               
There's so much more to me than
F
Meets the eye
G
In this life
Am      G
I know one thing


Chorus:
   Am                    F
It doesn't really matter what you wear
C              G
Let the people stare
       Am         F          C          G
Cuz we are who we are who we are who we are
   Am                         F
It doesn't really matter what car you drive
C              G
It's good to be alive
       Am         F          C          G
Yeah we are who we are who we are who we are
       Am
Who we are


Verse 2:
Am                 C             Am        C
Tell me baby do I look like the real thing
Am                      C           Am     C
Or would you change the color of my eyes
Am              C           F                (G) 
Tell me why my television's filling me with lies


Repeat Chorus


Bridge:
Am          Dm               Am
   There is beauty on the inside
               F
Yeah you're beautiful... all right!


Chords during solo:
Am F C G


Solo:
E|-------------------------------------------------------------------------|
B|-------------------------------------------------------------------------|
G|-------------------------12-9--------------------------------------------|
D|--10-10-10-10---10-10-10--------10-10-10-10---10-10-10-9-9---------------|
A|-----------------------------------------------------------12-12-10-10---|
E|-------------------------------------------------------------------------|

E|-----------------------------------15-15-15-13-13-12-13-12---------------|
B|--10-10-12-13-/15-13-12-13---13-13-------------------------15------------|
G|-------------------------------------------------------------------------|
D|-------------------------------------------------------------------------|
A|-------------------------------------------------------------------------|
E|-------------------------------------------------------------------------|


Chorus & outro:

           Am                    F
Though it doesn't really matter what you wear
C              G
Let the people stare
       Am         F          C          G
Cuz we are who we are who we are who we are


Riff:
E|--3--1--0------------------|      E|---------------------------|
B|-----------3--1--0---------|	    B|---------------------------|
G|--------------------2--0---| or   G|--0------------------------| not 
D|---------------------------|      D|-----3--2--0---------------| sure...
A|---------------------------|      A|--------------3--2--0------|
E|---------------------------|      E|-----------------------3---|

   Am                          F
It doesn't really matter what car you drive
C              G
It's good to be alive
       Am         F          C          G
Yeah we are who we are who we are who we are
       Am
Who we are ->
   Am                    F
It doesn't really matter what you wear
C              G           Am         F     C          G
Let the people stare (it's good to be alive good to be alive)
Am                         F
Doesn't really matter what car you drive
C               G     
It's good to be alive (who we are)
        F
Yeah we are who we are who we are who we are

who we are (it's good to be alive good to be alive)
           G        Am
When we're who we are


Have fun! X
Tap to rate this tab
# A B C D E F G H I J K L M N O P Q R S T U V W X Y Z