Song name
# A B C D E F G H I J K L M N O P Q R S T U V W X Y Z

New York Dolls - Babylon tab

Band: New York Dolls
Song: Babylon
Album: Too Much Too Soon
Year: 1974


Intro

“Come on, boys!”
e|-------------------------------|
B|-------------------------------|
G|-4—-4-4-4-4-4-4-4-4-4-4-4-4----|
D|-4—-4-4-4-4-4-4-4-4-4-4-4-4—-5-|
A|-2—-2-2-2-2-2-2-2-2-2-2-2-2—-5-|
E|-----------------------------3-|


							X3
e||---------------------------------||
B||---------------------------------||
G||*--------------9\-----------4---*||
D||*-----6-7-6-----------6-7-6-4-5-*||
A||------4-5-4-----------4-5-4-2-5--||
E||--0-0--------0----0-0---------3--||

e|-----12-12-12-12-12-12-12-12-12-12-12---|
B|----------------------------------------|
G|-9-9------------------------------------|
D|----------------------------------------|
A|----------------------------------------|
E|----------------------------------------|

					X3
e||---------------------||
B||---------------------||
G||*-2----------9--7-5-*||
D||*-2-2-4-2-4--9—-7-5-*||
A||--0-0-0-0-0--7—-5-7--||
E||---------------------||

e|--------------------------------|
B|------------3----3--------------|
G|-2----------2----2----4----4----|
D|-2-2-4-2-4—-0----0----4----4—-5-|
A|-0-0-0-0-0------------2----2—-5-|
E|------------------------------3-|


X3
e||---------------------------------||
B||---------------------------------||
G||*--------------9\-----------4---*||
D||*-----6-7-6-----------6-7-6-4-5-*||
A||------4-5-4-----------4-5-4-2-5--||
E||--0-0--------0----0-0---------3--||

e|-----12-12-12-12-12-12-12-12-12-12-12---|
B|----------------------------------------|
G|-9-9------------------------------------|
D|----------------------------------------|
A|----------------------------------------|
E|----------------------------------------|

					X3
e||---------------------||
B||---------------------||
G||*-2----------9--7-5-*||
D||*-2-2-4-2-4--9—-7-5-*||
A||--0-0-0-0-0--7—-5-7--||
E||---------------------||

e|------------------------------------------|
B|------------3----3------------------------|
G|-2----------2----2----4----4----4----4----|
D|-2-2-4-2-4—-0----0----4----4----4----4--5-|
A|-0-0-0-0-0------------2----2----2----2--5-|
E|----------------------------------------3-|

Last  Verse

							X3
e||----------------------------------||
B||----------------------------------||
G||*----------------------------4---*||
D||*-----6-7-6----6-7-6---6-7-6-4-5-*||
A||------4-5-4----4-5-4---4-5-4-2-5--||
E||--0-0--------0-------0---------3--||

e|-----12-12-12-12-12-12-12-12-12-12-12---|
B|----------------------------------------|
G|-9-9------------------------------------|
D|----------------------------------------|
A|----------------------------------------|
E|----------------------------------------|

Outro
				X a lot
e||---------------------||
B||---------------------||
G||*-2----------9--7-5-*||
D||*-2-2-4-2-4--9—-7-5-*||
A||--0-0-0-0-0--7—-5-7--||
E||---------------------||

e|------------------------------------------||
B|------------3----3------------------------||
G|-2----------2----2----4----4----4----4----||
D|-2-2-4-2-4—-0----0----4----4----4----4----||
A|-0-0-0-0-0------------2----2----2----2----||
E|------------------------------------------||

Notation
\		slide down
Tap to rate this tab
 
# A B C D E F G H I J K L M N O P Q R S T U V W X Y Z