Guitaretab - guitar tabs
Song name
# A B C D E F G H I J K L M N O P Q R S T U V W X Y Z

Newsboys - Always tab

Author/Artist: Newsboys
Title: Always
Album: Step Up To The Microphone


--------------------------------------|
--------------------------------------|
--------------------------------------|
--------------------------------------|
-----8----8----8--------10---10---10--|
--10---10---10--------8----8----8-----|
Play this through the intro and first verse

[ Tab from: http://www.guitaretab.com/n/newsboys/160429.html ]
----------------------------------------------------------------------------|
----------------------------------------------------------------------------|
----------------------------------------------------------------------------|
---10---10---10------10----10----10----10---10---10-------------------------|
-8----8----8-----------------------------------------------------8---8---8--|
------------------10----10----10-----8----8----8------------6---6---6-------|
Play this through the chorus


-------------------------------------------------------------------|
-------------------------------------------------------------------|
-------------------------------------------------------------------|
-------------------------------------------------------------------|
----8----8----8-----10---10---10----10---10---8-------10---10---10-|
-10---10---10-----8----8----8-----6----6----------6/8----8----8----|
Play this after the first time they sing the chorus and through the
second verse.

Here are the chords to the chorus:
F  Dm  C
   Bb
F  Dm  C
   Bb

Note: I use a chorus effect with slight delay (on a Fender Stratocaster)
 to try to get the same sound as the intro guitar.
Related for Always tab
Advertisement will be closed in 10 seconds