Song name
# A B C D E F G H I J K L M N O P Q R S T U V W X Y Z

Newton Faulkner - Waiting On You tab

This is a tab for waiting on you from his new album StudioZoo.

Tuning:
E
A
B
E
G#
E

The frets will be relative to the capo, which is placed on the 4th fret. This song isn't
picked throughout, for example the majority of the time you play the high e string, you
just freely strum it. Also, a slap on the strings is added every occasional beat, which 
isn't located in the tab. You will need to listen through the song and add it to the tab below.


Key:
H = Harmonics
h = hammer on
p = pull off
s = slide

Intro/verse
      Running around in circles..    H
E  |-------------------------5-5-5-5---4-4-4-5--0---------------|
A  |---------------------------------------------5s11--9-7-5----|
B  |-0---------0-0--0--------7-5-7-9---5-4-0-2-0-------7-5-4----|
E  |-0-----0-0-0-0---------------------0-0-0-0-0-------0-0-0--0-|
G# |-0h1h3-3-0-1-0---5s3s1p0---------7------------------------0-|
E  |-------0-0---0---0----------0-0--7------------------0-0-0-0-|

Chorus
      When you're alone..
E  |-0h5--0h5--0h5--0h5s7----------------------------|
A  |-0-0--0-0--0-0--0-0-0---0----0----0----0----0----|
B  |-0-0--0-0--0-0--0-0-0----0----0----0----0----0---|
E  |-0-0--0-0--0-0--0-0-0-0---0----0----0----0----0--|
G# |-0h5--0h5--0h5--0h5s7-0----15---15---12---10---8-|
E  |-0-0--0-0--0-0--0-0-0-0--------------------------|

E  |-0h5--0h5--0h5--0h5s7--------------|
A  |-0-0--0-0--0-0--0-0-0--------------|
B  |-0-0--0-0--0-0--0-0-0--------4--4--|
E  |-0-0--0-0--0-0--0-0-0-0------2--2--|
G# |-0h5--0h5--0h5--0h5s7-0------------|
E  |-0-0--0-0--0-0--0-0-0-0-------0--0-|

     It isn't always easy...         H
E  |-------------------------5-5-5-5---4-4-4-5--0---------------|
A  |---------------------------------------------5s11--9-7-5----|
B  |-0---------0-0--0--------7-5-7-9---5-4-0-2-0-------7-5-4----|
E  |-0-----0-0-0-0---------------------0-0-0-0-0-------0-0-0--0-|
G# |-0h1h3-3-0-1-0---5s3s1p0---------7------------------------0-|
E  |-------0-0---0---0----------0-0--7------------------0-0-0-0-|

    Climbing upon my shoulders...    H
E  |-------------------------5-5-5-5---4-4-4-5--0---------------|
A  |---------------------------------------------5s11--9-7-5----|
B  |-0---------0-0--0--------7-5-7-9---5-4-0-2-0-------7-5-4----|
E  |-0-----0-0-0-0---------------------0-0-0-0-0-------0-0-0--0-|
G# |-0h1h3-3-0-1-0---5s3s1p0---------7------------------------0-|
E  |-------0-0---0---0----------0-0--7------------------0-0-0-0-|

E  |-0h5--0h5--0h5--0h5s7----------------------------|
A  |-0-0--0-0--0-0--0-0-0---0----0----0----0----0----|
B  |-0-0--0-0--0-0--0-0-0----0----0----0----0----0---|
E  |-0-0--0-0--0-0--0-0-0-0---0----0----0----0----0--|
G# |-0h5--0h5--0h5--0h5s7-0----15---15---12---10---8-|
E  |-0-0--0-0--0-0--0-0-0-0--------------------------|

E  |-0h5--0h5--0h5--0h5s7--------------|
A  |-0-0--0-0--0-0--0-0-0--------------|
B  |-0-0--0-0--0-0--0-0-0--------4--4--|
E  |-0-0--0-0--0-0--0-0-0-0------2--2--|
G# |-0h5--0h5--0h5--0h5s7-0------------|
E  |-0-0--0-0--0-0--0-0-0-0-------0--0-|

Verse:

E  |-------------------------5-5-5-5---4-4-4-5--0---------------|
A  |---------------------------------------------5s11--9-7-5----|
B  |-0---------0-0--0--------7-5-7-9---5-4-0-2-0-------7-5-4----|
E  |-0-----0-0-0-0---------------------0-0-0-0-0-------0-0-0--0-|
G# |-0h1h3-3-0-1-0---5s3s1p0---------7------------------------0-|
E  |-------0-0---0---0----------0-0--7------------------0-0-0-0-|

E  |-------------------------5-5-5-5---4-4-4-5--0--------------------|
A  |---------------------------------------------5s11--9-7-5-4-2-5-0-|
B  |-0---------0-0--0--------7-5-7-9---5-4-0-2-0-------7-5-4-2-0-----|
E  |-0-----0-0-0-0---------------------0-0-0-0-0-------0-0-0-0-0-----|
G# |-0h1h3-3-0-1-0---5s3s1p0---------7-------------------------------|
E  |-------0-0---0---0----------0-0--7------------------0-0-0-0-0-0--|

Bridge:

E  |------------------------------------------------|
A  |------------------------------------------------|
B  |-2--2--2--2--------------2--2--2--2-------------|
E  |-0--0--0--0--0--0--0--0--0--0--0--0--0--0--0--0-|
G# |-0--0--0--0--0--0--0--0--0--0--0--0--0--0--0--0-|
E  |-------------0--0--0--0--------------0--0--0--0-|

E  |-0h5--0h5--0h5--0h5s7----------------------------|
A  |-0-0--0-0--0-0--0-0-0---0----0----0----0----0----|
B  |-0-0--0-0--0-0--0-0-0----0----0----0----0----0---|
E  |-0-0--0-0--0-0--0-0-0-0---0----0----0----0----0--|
G# |-0h5--0h5--0h5--0h5s7-0----15---15---12---10---8-|
E  |-0-0--0-0--0-0--0-0-0-0--------------------------|

E  |-0h5--0h5--0h5--0h5s7--------------|
A  |-0-0--0-0--0-0--0-0-0--------------|
B  |-0-0--0-0--0-0--0-0-0--------4--4--|
E  |-0-0--0-0--0-0--0-0-0-0------2--2--|
G# |-0h5--0h5--0h5--0h5s7-0------------|
E  |-0-0--0-0--0-0--0-0-0-0-------0--0-|

     London to California...         H
E  |-------------------------5-5-5-5---4-4-4-5--0---------------|
A  |---------------------------------------------5s11--9-7-5----|
B  |-0---------0-0--0--------7-5-7-9---5-4-0-2-0-------7-5-4----|
E  |-0-----0-0-0-0---------------------0-0-0-0-0-------0-0-0--0-|
G# |-0h1h3-3-0-1-0---5s3s1p0---------7------------------------0-|
E  |-------0-0---0---0----------0-0--7------------------0-0-0-0-|

E  |-------------------------5-5-5-5---4-4-4-5--0--------------------|
A  |---------------------------------------------5s11--9-7-5-4-2-5-0-|
B  |-0---------0-0--0--------7-5-7-9---5-4-0-2-0-------7-5-4-2-0-----|
E  |-0-----0-0-0-0---------------------0-0-0-0-0-------0-0-0-0-0-----|
G# |-0h1h3-3-0-1-0---5s3s1p0---------7-------------------------------|
E  |-------0-0---0---0----------0-0--7------------------0-0-0-0-0-0--|
Tap to rate this tab
# A B C D E F G H I J K L M N O P Q R S T U V W X Y Z