Song name
# A B C D E F G H I J K L M N O P Q R S T U V W X Y Z

Nick Drake - Things Behind The Sun tab

THINGS BEHIND THE SUN

From Nick Drake's brilliant last studio album 'Pink Moon'

STANDARD Tuning (eadgbe)

CAPO FOURTH FRET

It sounds like he is  strumming (without a plectrum) and picking some notes something
Nick Drake does incredible smoothly and well. 

However if you find it easier to just strum the chords then do so. Some parts of the
tabs there are hammer on and pull-off's noted but thats not exactly what hes doing
however its basically the same. 

Also its a lot easier to tab them as that. Those notes are the key to creating that
suspense and tension that this song does so well.

First chord is an Asus4 shape but the song sounds in the key of C# thanks to the capo.

Please rate/ Enjoy!

:)
     
For More Accurate Nick Drake tabs as well as Bio, Discography, lyrics etc 

http://www.algonet.se/~iguana/DRAKE/DRAKE.html

Intro:
     
|--------|--------|--------|--------| 
|----0---|----0---|----0---|-0------| 
|----2---|----2---|----2---|---2-2--| 
|----2-22|----2-22|----2-22|--2-----| 
|0-0-----|0-0-----|0-0-----|0---0---| 
|--------|--------|--------|------0-|
     
     
|--------|--------|--------|--------|--------|--------| 
|----1---|----1---|--------|--------|--------|--------| 
|----2--2|-2--2---|----1---|----1---|----0-0-|-0---0--| 
|----2-2-|----2---|----2--2|-2--2--2|----0--0|-0-00--0| 
|0-0-----|0-0---02|----2-2-|----2-2-|----3-3-|--3---3-| 
|--------|--------|0-0-----|0-0-----|0h1-----|1-------|
     
|--------|--------|--------|--------| 
|----0---|----0---|----0---|----0---| 
|----2---|----2---|----1---|----1---| 
|----0--0|-0--0--0|----0--0|-0--0--0| 
|----2-2-|----2-2-|----2-2-|----2-2-| 
|1p0-----|0-0-----|0-0-----|0-0-----|
     
Verse: (basically a simplified version of the above)
     
|--------|--------|--------|--------|--------|--------|--------|--------| 
|----1---|----1---|--------|--------|---(0)--|---(0)--|----0---|----0---| 
|----2--2|----2--2|----1---|----1---|----0---|----0---|----2---|----1---| 
|----2-2-|----2-2-|----2--2|----2--2|----0--0|----0--0|----0--0|----0--0| 
|0-0-----|0-0-----|----2-2-|----2-2-|----3-3-|----3-3-|02--2-2-|----2-2-| 
|--------|--------|0-0-----|0-0-----|0-1-----|1-1-----|--0-----|0-0-----|
     
Second bit:
     
|--------|--------|--------|--------|--------|--------|--------|--------| 
|----2---|----3---|----2---|----3---|----1---|--0--1--|----1---|--0--1--| 
|----2---|----4---|----2---|----2---|----0---|--0--0--|----2---|--2--2--| 
|----2---|----2---|----2---|----4---|----2--2|--0--2--|----0--0|--0--0--| 
|0-0---00|0-0---00|0-0---00|0-0---00|------3-|----3---|------0-|--------| 
|--------|--------|--------|--------|0-3-----|3-----3-|3-2-----|2---2-2-|
     
(play above twice, then this:)
     
|--------|--------|--------|--------|--------|--------| 
|--------|--------|----0---|--0-----|----0---|--0-----| 
|----0---|--0-----|----2---|--2-----|----1---|--1-----| 
|----0---|--0-----|----0---|--0-----|----0---|--0-----| 
|----3-33|--3-333-|02--2-22|--2-222-|----2-22|--2-22--| 
|0h1-----|1-------|--0-----|0-------|0-0-----|0-----0-|
     

instrumental bit:
     
     
|--------|--------|--------|--------|--------|--------|--------|--------| 
|----2---|--3-----|----2---|----3---|----1---|--0--1--|----1---|--0--1--| 
|----2---|--4-----|----2---|----2---|----0---|--0--0--|----2---|--2--2--| 
|----2---|--2-----|----2---|----4---|----2--2|--0--2--|----0--0|--0--0--| 
|0-0---00|0---000-|0-0---00|0-0---00|------3-|----3---|------0-|--------| 
|--------|--------|--------|--------|0-3-----|3-----3-|3-2-----|2---2-2-|
     
|--------|--------|--------|--------|--------|--------| 
|--------|--------|----0---|----0---|----0---|----0---| 
|----0---|-0---0--|----2---|----2---|----1---|----1---| 
|----0--0|---00--0|----0--0|-0--0--0|----0--0|-0--0--0| 
|----3-3-|--3---3-|----2-2-|----2-2-|----2-2-|----2-2-| 
|0-1-----|1-------|1-0-----|0-0-----|0-0-----|0-0-----|
Tap to rate this tab
 
# A B C D E F G H I J K L M N O P Q R S T U V W X Y Z