Guitaretab - guitar tabs
Song name
# A B C D E F G H I J K L M N O P Q R S T U V W X Y Z

Nick Jonas And The Administration - Inseparable tab

I figured out what Nick plays in Inseparable. I'm still working on Sonny's guitar solo 
such.

For an idea on the strumming, copy this link into your address bar:

http://www.youtube.com/watch?v=jkqe7jKLTu0&feature=channel

Verse:

------------------------------------------------------|
------------------------------------------------------|
------------8-8-8-8888------------10-10-10-10101010---|
-5-5-5-5555-8-8-8-8888-8-8-8-8888-10-10-10-10101010---|
-5-5-5-5555-6-6-6-6666-8-8-8-8888-8--8--8--8-8-8-8----|
-3-3-3-3333------------6-6-6-6666---------------------|

Chorus:
[ Tab from: http://www.guitaretab.com/n/nick-jonas-and-the-administration/238372.html ]
---------------------------------------------------------------|
---------------------------------------------------------------|
5-5-5-5-5---------------8-8-8-8888--------10-10-10-10-101010---|
5-5-5-5-5--5-5-5-5555---8-8-8-8888-888888-10-10-10-10-101010---|
3-3-3-3-3--5-5-5-5555---6-6-6-6666-888888-8--8--8--8--8-8-8----|
-----------3-3-3-3333--------------666666----------------------|

Repeat again, but instead of


----------------------------           ------------|
----------------------------           ------------|
-------10-10-10-10-101010--- play this ------10~---|
888888-10-10-10-10-101010---           -8~---10~---|
888888-8--8--8--8--8-8-8----           -8~---8~~---|
666666----------------------           -6~---------|

Repeat the verse

Repeat the Chorus

And repeat the verse again during the "Oh, oh, oh, ohh" part.

End like this:

----------------|
----------------|
----------------|
-5-5-5-x--------|
-5-5-5-x--------|
-3-3-3-x--------|
Related for Inseparable tab
Inseparable chords by Nick Jonas And The Administration