Song name
# A B C D E F G H I J K L M N O P Q R S T U V W X Y Z

Nick Jonas And The Administration - Tonight tab

-------------------------------------------------------------------------------
			     TONIGHT - Nick Jonas & The Administration
-------------------------------------------------------------------------------
Tabbed by: kasiajonas
Email: popolsku8@gmail.com

Tuning: Standard

I watched the video of Nick recording that song from his album and I guess that is the 
way he plays it. I'm not really sure though :)

INTRO x4
e|---------------------------------------------------------------------------|
B|---------------------------------------------------------------------------|
G|-9-9-9-9-9-9-9-9-9-9-9-9-9-9-9-9-9-9----14-13------------------------------|
D|-9-9-9-9-9-9-9-9-9-9-9-9-9-9-9-9-9-9----14-13------------------------------|
A|-7-7-7-6-7-7-7-7-6-7-7-7-7-6-7-7-7-7-12------------------------------------|
E|---------------------------------------------------------------------------|

VERSE
e|---------------------------------------------------------------------------|
B|---------------------------------------------------------------------------|
G|-6-----6-----6-------------------------------------------------------------|
D|-6-9-7-6-9-7-6-9-7-4-7-9---------------------------------------------------|
A|-4-9-7-4-9-7-4-9-7-4-7-9---------------------------------------------------|
E|---7-5---7-5---7-5-2-5-7---------------------------------------------------|

CHORUS
e|---------------------------------------------------------------------------|
B|---------------------------------------------------------------------------|
G|-9-----9-----9-----9-------------------------------------------------------|
D|-9-9-7-9-9-7-9-9-7-9-9-7---------------------------------------------------|
A|-7-9-7-7-9-7-7-9-7-7-9-7---------------------------------------------------|
E|---7-5---7-5---7-5---7-5---------------------------------------------------|

INTERLUDE x2
e|---------------------------------------------------------------------------|
B|---------------------------------------------------------------------------|
G|-9-9-9-9-9-9-9-9-9-9-9-9-9-9-9-9-9-9----14-13------------------------------|
D|-9-9-9-9-9-9-9-9-9-9-9-9-9-9-9-9-9-9----14-13------------------------------|
A|-7-7-7-6-7-7-7-7-6-7-7-7-7-6-7-7-7-7-12------------------------------------|
E|---------------------------------------------------------------------------|

VERSE
e|---------------------------------------------------------------------------|
B|---------------------------------------------------------------------------|
G|-6-----6-----6-------------------------------------------------------------|
D|-6-9-7-6-9-7-6-9-7-4-7-9---------------------------------------------------|
A|-4-9-7-4-9-7-4-9-7-4-7-9---------------------------------------------------|
E|---7-5---7-5---7-5-2-5-7---------------------------------------------------|

CHORUS
e|---------------------------------------------------------------------------|
B|---------------------------------------------------------------------------|
G|-9-----9-----9-----9-------------------------------------------------------|
D|-9-9-7-9-9-7-9-9-7-9-9-7---------------------------------------------------|
A|-7-9-7-7-9-7-7-9-7-7-9-7---------------------------------------------------|
E|---7-5---7-5---7-5---7-5---------------------------------------------------|

BRIDGE
e|---------------------------------------------------------------------------|
B|---------------------------------------------------------------------------|
G|-6-----4-6-----4-6-----4-6-----4-------------------------------------------|
D|-6-7-4-4-6-7-4-4-6-7-4-4-6-7-4-4-------------------------------------------|
A|-4-7-4-2-4-7-4-2-4-7-4-2-4-7-4-2-------------------------------------------|
E|---5-2-----5-2-----5-2-----5-2---------------------------------------------|

INTERLUDE (you can play nothing or you can play the intro twice)

CHORUS
e|---------------------------------------------------------------------------|
B|---------------------------------------------------------------------------|
G|-9-----9-------------------------------------------------------------------|
D|-9-9-7-9-9-7---------------------------------------------------------------|
A|-7-9-7-7-9-7---------------------------------------------------------------|
E|---7-5---7-5---------------------------------------------------------------|

ADDITIONAL LYRICS (you can play nothing or you can play the intro 4 times)

OUTRO (repeat until the song fades)
e|---------------------------------------------------------------------------|
B|---------------------------------------------------------------------------|
G|-9-9-9-9-9-9-9-9-9-9-9-9-9-9-9-9-9-9----14-13------------------------------|
D|-9-9-9-9-9-9-9-9-9-9-9-9-9-9-9-9-9-9----14-13------------------------------|
A|-7-7-7-6-7-7-7-7-6-7-7-7-7-6-7-7-7-7-12------------------------------------|
E|---------------------------------------------------------------------------|


************************************

| /   slide up
| \   slide down
| h   hammer-on
| p   pull-off
| ~   vibrato
| +   harmonic
| x   Mute note
| b   Bend
| pb  Pre-bend
| br  Bend release
| pbr Pre-bend release
| brb Bend release bend

************************************
Tap to rate this tab
# A B C D E F G H I J K L M N O P Q R S T U V W X Y Z