Song name
# A B C D E F G H I J K L M N O P Q R S T U V W X Y Z

Nick Santino - Its Alright chords

Highlighted       Show chord diagrams
Nick Santino & The Northern Wind - Going Home
It's Alright 
Capo 5

Intro/Verse - 2x
    C   C/B  Am7   G    F        G
e|-------------------------------------|
B|--1----1----1----3----1--------3-----|
G|--0----0----0----0----2--------0-----|
D|--2----0----2----0----3--------0-----|
A|--3----2----0----2----3--------2-----|
E|-----------------3----1--------3-----|

Chorus - 5x
   Am7  G    F
e|---------------------|
B|--1----3----1--------|
G|--0----0----2--------|
D|--2----0----3--------|
A|--0----2----3--------|
E|-------3----1--------|

Intro/Verse 

Chorus 

Bridge - 2x
  Fmaj7  G    C
e|---------------------|
B|--1----3----1--------|
G|--2----0----0--------|
D|--3----0----2--------|
A|--3----2----3--------|
E|-------3-------------|
  Fmaj7  G   Am G F  G
e|------------------------|
B|--1----3----1-3-1--3----|
G|--2----0----2-0-2--0----|
D|--3----0----2-0-3--0----|
A|--3----2----0-2-3--2----|
E|-------3------3-1--3----|

Chorus/End
Tap to rate this tab
# A B C D E F G H I J K L M N O P Q R S T U V W X Y Z