Guitaretab - guitar tabs
Song name
# A B C D E F G H I J K L M N O P Q R S T U V W X Y Z

Nickel Creek - Smoothie Song tab

this solo is actually a lot easier than it seems...i've only been playing
mandolin for a month or so and i got it down rather quickly...this is
my first tab on any instrument so if i messed up with the format or
anything please forgive me...enjoy!

thanks, eric vitoff


--Chris Thile's Smoothie Song Mandolin Solo--

e-------------------------------------------|
a-------------------------------3-----------|
d-------------0---5s7--7--5--5-----3--0-----|
g--2--2--2h5--------------------------------|

e-------------------------------------------|
a-------------------------------------------|
d--1--0--------2p0--------3s5--5--3-3--2-2--|
g--------5--2-------5--2--------------------|
[ Tab from: http://www.guitaretab.com/n/nickel-creek/54331.html ]
e-------------------------------------------|
a-------------------------------------------|
d--0-0--------------------------------------|
g------0-0-1-1-2-2-3-3-4-4-5-5-6-6-7-5-2----|

e-------------------------------------------|
a-------------------------------------------|
d--3-2-0----------3-5-7-9-9-12---12-12-12---|
g---------7-5-7-7---------------------------|

e-------------------------------------------|
a-------------------------------------------|
d--12-12-10--10-10-10--10-10-10-9--9-9-9-7--|
g-------------------------------------------|

e-------------------------------------------|
a-------------------------------------------|
d--7-6-5-4-3-2-1-0--------------------------|
g------------------6------------------------|
Related for Smoothie Song tab
Advertisement will be closed in 10 seconds