Song name
# A B C D E F G H I J K L M N O P Q R S T U V W X Y Z

Nickel Creek - Somebody More Like You tab

-------------------------------------------------------------------------------
			     SONG NAME - Band Name
-------------------------------------------------------------------------------
Song: Somebody More Like You
Artist: Nickel Creek
Album: Why Should the Fire Die?

Tabbed by: Ben
Email: bjroske@csbsju.edu

Tuning: Standard

Intro:

e|------------------0-2-4-4---2--2-0------------------0-0----0-2-4--4--------|
B|--------------2----------------------2-0--------2-4------2----------4------|
G|------------1---1-----------------------------1----------------------------|
D|---------------------------------------------------------------------------|
A|--4-4-4-4-4---------------2-2--0----------------------4-4-4-4-----3----4---|
E|-----------------------------------4-0---1-2-------------------------------|

e|------------------0-2-4-4---2--2-0------------------0-0----0-2-4--4--2--0-----|
B|--------------2----------------------2-0--------2-4------2--------------------|
G|------------1---1-----------------------------1-------------------------------|
D|------------------------------------------------------------------------------|
A|--4-4-4-4-4---------------2----0----------------------4-----------2-----------|
E|-----------------------------------4-0---1-2----------------------------0-0-0-|

    *The trick is to keep the bass line going with you’re thumb while the index finger 
the melody.  I didn’t tab ALL the repeated bass lines but just know that it is played 
the melody

Verse(s):

	 C#m    B    A    E    F#m  C#m  G#7   C#m  B    A    E    F#m  C#m  B   E
e|--------4-----2----0----0-----2----4----x----4---2----0----0-----2----4---2---0--|
B|--------5-----4----2----0-----2----5----4----5---4----2----0-----2----5---4---0--|
G|---8----6-----4----2----1-----2----6----5----6---4----2----1-----2----6---4---1--|
D|---x----6-----4----2----2-----4----6----6----6---4----2----2-----4----6---4---2--|
A|---6----4-----2----0----2-----4----4----3----4---2----0----2-----4----4---2---2--|
E|--------x-----x----x----0--1--2----x----x----x---x----x----0--1--2----x---x---0--|

Refrían:

     B  F#m  A   B  F#m  A   B  G#7  C#m
e|---7---2---5---7---2---5---7---4----4----|
B|---7---2---5---7---2---5---7---4----5----|
G|---8---2---6---8---2---6---8---5----6----|
D|---9---4---7---9---4---7---9---4----6----|
A|---9---4---7---9---4---7---9---6----4----|
E|---7---2---5---7---2---5---7---4----x----|


There’s a lot more technique in figure placement, grace notes, and strumming that you’ll 
to pick up  by listening to the song… enjoy!
Tap to rate this tab
# A B C D E F G H I J K L M N O P Q R S T U V W X Y Z