Song name
# A B C D E F G H I J K L M N O P Q R S T U V W X Y Z

Nickelback - Midnight Queen tab

From the brand new album Here and Now!

This is my very first tab. I am kinda sure it's 100% correct.

Drop C Tuning: C G C F A D



--------------------------------------------------------------------|
--------------------------------------------------------------------|
--------------------------------------------------------------------|
--------------------------------------------------------------------|
------------------------------------------------------------------3-|
-3--4-5-0-3-4-5-0-3-4-5-0-3-4-9-8--9-10-0-8-9-10-0-8-9-10-0-8-9-0-3-|



-----------------------------------------------------------------|
-----------------------------------------------------------------|
-----------------------------------------------------------------|
-----------------------------------------------------------------|
--4-5-0-3-4-5-0-3-4-5-0-3-4-9-8--9-10-0-8-9-10-0-8-9-10-0-8-9-10-|
--4-5-0-3-4-5-0-3-4-5-0-3-4-9-8--9-10-0-8-9-10-0-8-9-10-0-8-9-10-|
Tap to rate this tab
 
# A B C D E F G H I J K L M N O P Q R S T U V W X Y Z