Song name
# A B C D E F G H I J K L M N O P Q R S T U V W X Y Z

Nickelback - Flat On The Floor tab

band: Nickelback
Song: Flat on the floor
album: The long road

tuning: drop d

e---------------------------------|
b---------------------------------|
g---------------------------------|
d-2-2-0-2-5-5-2-5-7-7-5-7-8-7-5-7-|
a-2-2-0-2-5-5-2-5-7-7-5-7-8-7-5-7-|
d-2-2-0-2-5-5-2-5-7-7-5-7-8-7-5-7-|

e--------------------------------|
b--------------------------------|
g--------------------------------|
d-2-2-0-2-5-5-2-5-7-7-7-0--0--0--|
a-2-2-0-2-5-5-2-5-7-7-7-0--0--0--|
d-2-2-0-2-5-5-2-5-7-7-7-0--0--0--|

e---------------------------------|
b---------------------------------|
g---------------------------------|
d-2-2-0-2-5-5-2-5-7-7-5-7-8-7-5-7-|
a-2-2-0-2-5-5-2-5-7-7-5-7-8-7-5-7-|
d-2-2-0-2-5-5-2-5-7-7-5-7-8-7-5-7-|

e--------------------------------|
b--------------------------------|
g--------------------------------|
d-2-2-0-2-5-5-2-5-7-7-7-0--0--0--|
a-2-2-0-2-5-5-2-5-7-7-7-0--0--0--|
d-2-2-0-2-5-5-2-5-7-7-7-0--0--0--|

e------------------------------|
b------------------------------|
g------------------------------|
d-2-2-2---2-2--2---2-2-2--5-7--|
a-2-2-2---2-2--2---2-2-2--5-7--|
d-2-2-2---2-2--2---2-2-2--5-7--|

e------------------------------|
b------------------------------|
g------------------------------|
d-2-2-2---2-2--2---2-2-2--5-7--|
a-2-2-2---2-2--2---2-2-2--5-7--|
d-2-2-2---2-2--2---2-2-2--5-7--|

e---------------------------------|
b---------------------------------|
g---------------------------------|
d-2-2-0-2-5-5-2-5-7-7-5-7-8-7-5-7-|
a-2-2-0-2-5-5-2-5-7-7-5-7-8-7-5-7-|
d-2-2-0-2-5-5-2-5-7-7-5-7-8-7-5-7-|

e--------------------------------|
b--------------------------------|
g--------------------------------|
d-2-2-0-2-5-5-2-5-7-7-7-0--0--0--|
a-2-2-0-2-5-5-2-5-7-7-7-0--0--0--|
d-2-2-0-2-5-5-2-5-7-7-7-0--0--0--|

e---------------------------------|
b---------------------------------|
g---------------------------------|
d-2-2-0-2-5-5-2-5-7-7-5-7-8-7-5-7-|
a-2-2-0-2-5-5-2-5-7-7-5-7-8-7-5-7-|
d-2-2-0-2-5-5-2-5-7-7-5-7-8-7-5-7-|

e--------------------------------|
b--------------------------------|
g--------------------------------|
d-2-2-0-2-5-5-2-5-7-7-7-0--0--0--|
a-2-2-0-2-5-5-2-5-7-7-7-0--0--0--|
d-2-2-0-2-5-5-2-5-7-7-7-0--0--0--|

e------------------------------|
b------------------------------|
g------------------------------|
d-2-2-2---2-2--2---2-2-2--5-7--|
a-2-2-2---2-2--2---2-2-2--5-7--|
d-2-2-2---2-2--2---2-2-2--5-7--|

e------------------------------|
b------------------------------|
g------------------------------|
d-2-2-2---2-2--2---2-2-2--5-7--|
a-2-2-2---2-2--2---2-2-2--5-7--|
d-2-2-2---2-2--2---2-2-2--5-7--|

e---------------------------------|
b---------------------------------|
g---------------------------------|
d-2-2-0-2-5-5-2-5-7-7-5-7-8-7-5-7-|
a-2-2-0-2-5-5-2-5-7-7-5-7-8-7-5-7-|
d-2-2-0-2-5-5-2-5-7-7-5-7-8-7-5-7-|

e--------------------------------|
b--------------------------------|
g--------------------------------|
d-2-2-0-2-5-5-2-5-7-7-7-0--0--0--|
a-2-2-0-2-5-5-2-5-7-7-7-0--0--0--|
d-2-2-0-2-5-5-2-5-7-7-7-0--0--0--|

e---------------------------------|
b---------------------------------|
g---------------------------------|
d-2-2-0-2-5-5-2-5-7-7-5-7-8-7-5-7-|
a-2-2-0-2-5-5-2-5-7-7-5-7-8-7-5-7-|
d-2-2-0-2-5-5-2-5-7-7-5-7-8-7-5-7-|

e--------------------------------|
b--------------------------------|
g--------------------------------|
d-2-2-0-2-5-5-2-5-7-7-7-0--0--0--|
a-2-2-0-2-5-5-2-5-7-7-7-0--0--0--|
d-2-2-0-2-5-5-2-5-7-7-7-0--0--0--|

e-------------------------------|
b-------------------------------|
g-------------------------------|
d-2-2-10-2-2-2-10-2-2-2-10-5-7--|
a-2-2-10-2-2-2-10-2-2-2-10-5-7--|
d-2-2-10-2-2-2-10-2-2-2-10-5-7--|

e-------------------------------------|
b-------------------------------------|
g-------------------------------------|
d-2-2-10-10-2-2-10-10-2-2-10-10-5-7---|
a-2-2-10-10-2-2-10-10-2-2-10-10-5-7---|
d-2-2-10-10-2-2-10-10-2-2-10-10-5-7---|

--no chords--

e---------------|
b---------------|
g---------------|
d-222222222222--|
a-222222222222--| (not accurate)
d-222222222222--|

e---------------------------------|
b---------------------------------|
g---------------------------------|
d-2-2-0-2-5-5-2-5-7-7-5-7-8-7-5-7-|
a-2-2-0-2-5-5-2-5-7-7-5-7-8-7-5-7-|
d-2-2-0-2-5-5-2-5-7-7-5-7-8-7-5-7-|

e--------------------------------|
b--------------------------------|
g--------------------------------|
d-2-2-0-2-5-5-2-5-7-7-7-0--0--0--|
a-2-2-0-2-5-5-2-5-7-7-7-0--0--0--|
d-2-2-0-2-5-5-2-5-7-7-7-0--0--0--|

e---------------------------------------------|
b---------------------------------------------|
g---------------------------------------------|
d-2-2-------5-7--2-2-2---2-2--2---2-2-2--5-7--|
a-2-2-------5-7--2-2-2---2-2--2---2-2-2--5-7--|
d-2-2-------5-7--2-2-2---2-2--2---2-2-2--5-7--|

e---------------------------------|
b---------------------------------|
g---------------------------------|
d-2-2-0-2-5-5-2-5-7-7-5-7-8-7-5-7-|
a-2-2-0-2-5-5-2-5-7-7-5-7-8-7-5-7-|
d-2-2-0-2-5-5-2-5-7-7-5-7-8-7-5-7-|

e--------------------------------|
b--------------------------------|
g--------------------------------|
d-2-2-0-2-5-5-2-5-7-7-7-0--0--0--|
a-2-2-0-2-5-5-2-5-7-7-7-0--0--0--|
d-2-2-0-2-5-5-2-5-7-7-7-0--0--0--|

e---------------------------------|
b---------------------------------|
g---------------------------------|
d-2-2-0-2-5-5-2-5-7-7-5-7-8-7-5-7-|
a-2-2-0-2-5-5-2-5-7-7-5-7-8-7-5-7-|
d-2-2-0-2-5-5-2-5-7-7-5-7-8-7-5-7-|

e------------------|
b------------------|
g------------------|
d-2-2-0-2-5-5-2-5--|
a-2-2-0-2-5-5-2-5--|
d-2-2-0-2-5-5-2-5--|

e---------------------------------|
b---------------------------------|
g---------------------------------|
d-2-2-0-2-5-5-2-5-7-7-5-7-8-7-5-7-|
a-2-2-0-2-5-5-2-5-7-7-5-7-8-7-5-7-|
d-2-2-0-2-5-5-2-5-7-7-5-7-8-7-5-7-|

e--------------------------------|
b--------------------------------|
g--------------------------------|
d-2-2-0-2-5-5-2-5-7-7-7-0--0--0--|
a-2-2-0-2-5-5-2-5-7-7-7-0--0--0--|
d-2-2-0-2-5-5-2-5-7-7-7-0--0--0--|

e---------------------------------|
b---------------------------------|
g---------------------------------|
d-2-2-0-2-5-5-2-5-7-7-5-7-8-7-5-7-|
a-2-2-0-2-5-5-2-5-7-7-5-7-8-7-5-7-|
d-2-2-0-2-5-5-2-5-7-7-5-7-8-7-5-7-|

e--------------------------------|
b--------------------------------|
g--------------------------------|
d-2-2-0-2-5-5-2-5-7-7-7-0--0--0--|
a-2-2-0-2-5-5-2-5-7-7-7-0--0--0--|
d-2-2-0-2-5-5-2-5-7-7-7-0--0--0--|

e------------------------------------|
b------------------------------------|
g------------------------------------|
d-2-2-2---2-2--2---2-2-2---5-7--222--|
a-2-2-2---2-2--2---2-2-2---5-7--222--|
d-2-2-2---2-2--2---2-2-2---5-7--222--|
Tap to rate this tab
 
# A B C D E F G H I J K L M N O P Q R S T U V W X Y Z