Song name
# A B C D E F G H I J K L M N O P Q R S T U V W X Y Z

Nicky Astria - Samar Bayangan tab

        #----------------------------------PLEASE NOTE--------------------------------#
#This file is the author's own work and represents their interpretation of the#
#song. You may only use this file for private study, scholarship, or research.#
#-----------------------------------------------------------------------------#


From: Haqqo Sabahtulloh (haqqo_az_zahra@hotmail.com)
Subject: Nicky Astria/Samar Bayangan.tab

Samar Bayangan
Nicky Astria

Intro
Em B Am Dsus5/7

--5/7--7-5-3-2--3h5p3p2h3---3-2-0--------------2-3--5/7--5--3p2p0-2---|
--7/8--8-7-5-3--------------5-3-3--3-3--3/5-5--5-5--5/7--7--0-0-0-0---|
----------------------------------------------------------------------|
----------------------------------------------------------------------|
-----------------------------------0-0--------------------------------|
----------------------------------------------------------------------|


--7--7--7--8--7--10--8--7--7---|
--8--8--8--8--8--8---8--8--8---|
-------------------------------|   2X
-------------------------------|
-------------------------------|
-------------------------------|

Verse 1

Em                   D                    Am    Am7
Langkah semakin hilang jejak dihembus angin duka
                 Em
Kini tinggal samar bayangan.....
G                     D
Tak bisa lagi berdiri Tuk menantang cinta ini
B/Dsus7              G            C Csus5/7
Mengapa harus ku sendiri pertahankan
           B           Bmsus7
cinta yang berdarah ini...

ohhhhh.....................

Verse 2

Em               D                   Am
Hati masih merindu sedih walau hujan berapi
           Em
Membakar di bumi hatiku
Gsus5/7      D          Em       B
Andainya putus katamu ingin pergi dariku
C    Am7          B
Jangan kau menyesali


Bridge

      Em           Am
Segalanya akan aku tempuhi
D7 D         G   F#/d Em
Biar pun sejuta duri
     Am           D       G  F#m/D     Em
Menikam pisah hatiku menusuk pilu kalbuku
      C             B
Akan aku teguh berdiri lagi


Reff:

Em           Am        D7
Biarkanlah diriku sendiri
       G   F#/d   Em
Hadapi kelukaan ini
          Am  F#m Bm Am7 Em
Kan kusambung air mata ini
               Am  B          Em
Walaupun pedihnya tiada terperih

Em                   D                    Am    Am7
Langkah semakin hilang jejak dihembus angin duka
                 Em
Kini tinggal samar bayangan.....

Gsus5/7      D7       Em     B
Andainya putus katamu pergi Tinggalkan daku
C           Bm         Em  G
Jangan kau menyesali lagi

Fill 1 (Solo Guitar ...Tiada terperih.)

---------------------------------|
--------7--8--12--10--8--7-------|
---//9---------------------9--8--|
---------------------------------|
---------------------------------|
---------------------------------|

Fill 2 (Solo Guitar....Berdiri lagi..)

--12~~---------------------12h14h15p14p12-------------------------|
------15p14p12----12h14h15----------------15p14p12----------------|
---------------14-----------------------------------14p12p11------|
--------------------------------------------------------------14--|
------------------------------------------------------------------|
------------------------------------------------------------------|

------------------------------------------------------------------|
-----------------12h14h15p14p12-----------------------------------|
--------11h12h14----------------14p12p11--------------------------|
--12h14-----------------------------------14p12-//14~~-12~~-------|
------------------------------------------------------------------|
------------------------------------------------------------------|


Solo Guitar :

(Am7 Em Am Bm Em Bm Am Bm)
(Am7 Bm Em C Bm G Bm Am Bm)

------------------------------------------------------------------|
--------------------------------12--13~~13-15-15~~-13-12-13~~-12~-|
-----------------------11h12h14-----------------------------------|
--------------11h12h14--------------------------------------------|
--------11h14-----------------------------------------------------|
--12h14-----------------------------------------------------------|

--------------------------------------------------17--14-15-17-14-|
--10-12-13-12---------------------------------17------------------|
--------------11--14--14p13p11h13--14-14--16--16------------------|
------------------------------------------------------------------|
------------------------------------------------------------------|
------------------------------------------------------------------|

--------------------------12--15--18-18~~-18p17p15h17-17~~--------|
--15-15p13-15---17//---15-----------------------------------------|
------------------------------------------------------------------|
------------------------------------------------------------------|
------------------------------------------------------------------|
------------------------------------------------------------------|

--17p15p14--------14~~--14-14p12----12--------------------------------|
------------15~~-----------------15-----15p14p12----12----------------|
-------------------------------------------------14----14p12----------|
-------------------------------------------------------------14-12~~--|
----------------------------------------------------------------------|
----------------------------------------------------------------------|

Good Luck And Try It...
Email me. Dont Forget.(haqqo_az_zahra@hotmail.com) Peace.
Tap to rate this tab
# A B C D E F G H I J K L M N O P Q R S T U V W X Y Z