Song name
# A B C D E F G H I J K L M N O P Q R S T U V W X Y Z

Nicolas Ciccone - Jtaime Tout Court tab

Nicolas Ciccone – J’t’aime tout court


Intro :

   G
e|-----------------------------------------------------------------|
G|-------0-----3-----0--------------0-----3------------------------|
B|-----0---2-0-----0---2-0------0---2-0----------------------------|
D|---0-----------0-------------0-----------------------------------|
A|-----------------------------------------------------------------|
E|-3-------------------------3-------------------------------------|
                                         J’t’aime tout court…

Verse :

   G                                  C
e|----------------------------------------------------------------------------|
G|-------0-----3-----0-------------0-----------1------------1-0---1-----------|
B|-----0---2-0-----0---2-0------0---2-0-----0---0-------0---------2-----------|
D|---0-----------0-------------0-------------2-------2---2-------------2------|
A|------------------------------------------3-----------3------------------3--|
E|-3-------------------------3------------------------------------------------|
                                 …règle…
              G
e|------------------------------------------|
G|-1-0---1--------1-3-1-1------0------------|
B|------0-----------------------0---0-------|
D|-----------2---------------0--------0-----|
A|--------------3---------------------------|
E|------------------------------------------|

   G                                  C
e|-------------------------------------------------------------------------------|
G|-------0-----3-----0-------------0--------------1-----------1-0---1------------|
B|-----0---2-0-----0---2-0------0---2-0-------0---0-------0-----2----------------|
D|---0-----------0--------------0-------------2-------2---2--------------2-------|
A|-------------------------------------------3------------3-------------------3--|
E|-3--------------------------3--------------------------------------------------|
                                 …piège…

e|-------------------------------------|
G|-1-0---1--------1-3-1-0--------------|
B|-----0-------------------------------|
D|-----------2--------------------0----|
A|-------------3----------------2------|
E|-----------------------------3-------|

Refrain :

 -0--------0------0--------0-----------------------------|
-------------3-1--------3---0-1------1-3-1-0-------------|
--------0------------------------------------------------|
------2---------------2-------------2---------------0----|
----3---------------3-------------3---------------2------|
--------------------------------------------------3------|

Tous ces mots…


-0--------0------0--------0------------------------|
-------------3-1--------3---0-1--------------------|
--------0------------------------------------------|
------2---------------2-------------2--------------|
----3---------------3-------------3-----2----------|
------------------------------------------3--------|

Tous ces mots…


Intro :

                  G
       e|----------------------------------------------------------------|
       G|-------0-----3-------0-----------0-----3------------------------|
       B|-----0---2-0------0---2-0-----0---2-0---------------------------|
       D|---0-------------0------------0---------------------------------|
       A|----------------------------------------------------------------|
       E|-3--------------------------3-----------------------------------|
 Que je t’aime…                                 J’t’aime tout court…

Verse :

   G                                  C
e|----------------------------------------------------------------------------|
G|-------0-----3-----0------------0-------------1-----------1-0---1-----------|
B|-----0---2-0-----0---2-0-----0---2-0------0---0-------0-----2---------------|
D|---0------------0------------0-------------2-------2---2-------------2------|
A|------------------------------------------3-----------3------------------3--|
E|-3--------------------------3-----------------------------------------------|
                                  …gène…
                       G
e|------------------------------------|
G|-1-0---1------1-3-1-0---------------|
B|-----0------------------------------|
D|----------2--------------------0----|
A|------------3---------------2-------|
E|---------------------------3--------|

Refrain :
                                             G
  -0--------0------0-------0-----------------------------|
-------------3-1--------3---0-1------1-3-1-0-------------|
--------0------------------------------------------------|
------2---------------2-------------2---------------0----|
----3---------------3-------------3---------------2------|
--------------------------------------------------3------|
Tous ces mots…

 -0--------0------0---------0----------------------|
-------------3-1----------3---0-1------------------|
--------0------------------------------------------|
------2---------------2-------------2--------------|
----3---------------3-------------3-----2----------|
------------------------------------------3--------|


Tous ces mots…

Bridge :

   G                                                    C
e|-------------------------------------------------------------------|
G|-------0-----3-----0-1-3-0-----0-1-3-0-----0-1-3-3-----1-----------|
B|-----0---2-0-----0-----------0-------------0-----------0-----------|
D|---0------------0-----------0-------------0---------------0--------|
A|-------------------------------------------------------------------|
E|-3-----------------------------------------------------------------|

                                             G
e|-------------------0--------------0-------------------------------|
G|------1-------1-3---1-------1-3---1--------1-3-1-0----------------|
B|------------------------------------------------------------------|
D|---2-------2-------------2---------------2----------------0-------|
A|--3------3-------------3---------------3----------------2---------|
E|---------------------------------------------------------3--------|

                                       G
-0---------0------0--------0-----------------------------------|
--------------3-1--------3---0-1/3/1------1-3-1-0--------------|
---------------------------------------------------------------|
------2---------------2-----------------2-----------------0----|
----3---------------3-----------------3-----------------2------|
-------------------------------------------------------3-------|

                               G
-0--------0------0----------0-----------------------|
-------------3-1----------3---0-1-------------------|
----------------------------------------------------|
------2---------------2--------------2--------------|
----3---------------3--------------3----------------|
------------------------------------------3/7-3-----|

        G
e|-----------------------------------------------------------------|
G|-------0------3-----0-------------0-----3------------------------|
B|-----0---2-0------0---2-0-----0---2-0----------------------------|
D|---0-------------0-----------0-----------------------------------|
A|-----------------------------------------------------------------|
E|-3--------------------------3------------------------------------|
                                         J’t’aime tout court…

G                                  C           Am
e|------------------------------------------------------------------|
G|-------0------3------0-------------0------------1------------1----|
B|-----0---2-0------0---2-0------0---2-0------0---0--------2--------|
D|---0------------0-------------0--------------2-------2---2--------|
A|---------------------------------------------3-----------0--------|
E|-3---------------------------3------------------------------------|
                                 …peine…

  c    Am                    D
e|---------------------------0------------2----|
G|------1------1-----1-------3-1------3--------|
B|-2-------------2--------------------2--------|
D|---2-----2------2----2-----------0-----------|
A|-----------3------------0--------------------|
E|-----------------------------—---------------|

Refrain :
                                             G
-0--------0------0--------0------------------------------|
-------------3-1--------3---0-3------1-3-1-0-------------|
--------0------------------------------------------------|
------2---------------2-------------2---------------0----|
----3---------------3-------------3---------------2------|
--------------------------------------------------3------|

Tous ces mots…

0--------0------0--------0-------------------------------|
-------------3-1--------3---0-3------1-3-1-0-------------|
--------0------------------------------------------------|
------2---------------2-------------2---------------0----|
----3---------------3-------------3---------------2------|
--------------------------------------------------3------|

Tous ces mots…
                                             G
-0--------0------0--------0------------------------------|
-------------3-1--------3---0-3------1-3-1-0-------------|
--------0------------------------------------------------|
------2---------------2-------------2---------------0----|
----3---------------3-------------3---------------2------|
--------------------------------------------------3------|

Tous ces mots…
                                     G
-0--------0------0--------0--------------1----------|
-------------3-1--------3----0-1--------0-----------|
--------0---------------------------------0---------|
------2---------------2-------------2----0----------|
----3---------------3-------------3------2----------|
-------------------------------------------3--------|
Tous ces mots…

Fin :

              G
          e|-------------------------------1--------|
          G|-------0-----3------0--------0----------|
          B|-----0---2-0------0---2-0--0------------|
          D|---0------------0------------0----------|
          A|------------------------------2---------|
          E|-3----------------------------3---------|

Que je t’aime
Tap to rate this tab
# A B C D E F G H I J K L M N O P Q R S T U V W X Y Z