Song name
# A B C D E F G H I J K L M N O P Q R S T U V W X Y Z

Niet - Februar chords

Highlighted       Show chord diagrams
Niet - Februar



Intro: 


E|-------8--8----------8-----|-------8--8----------8-----|
B|--6--6------6---6--6----6--|--6--6------6---6--6----6--|
G|---------------------------|---------------------------|
D|---------------------------|---------------------------|
A|---------------------------|---------------------------|
E|---------------------------|---------------------------|

Zidovi se rušijo v moji glavi, stene pokajo pod težo alkohola.
 
E|-------8--8----------8-----|--5-5-----5-5-------5------|
B|--6--6------6---6--6----6--|------5-5-----5---5---5----|
G|---------------------------|---------------------------|
D|---------------------------|---------------------------|
A|---------------------------|---------------------------|
E|---------------------------|---------------------------|


Slabo mi je,         ko mesec sveti.
E|-------5--5----------5-----|-------3--3----------3-----|
B|--3--3------3---3--3----3--|--1--1------1---1--1----1--|
G|---------------------------|---------------------------|
D|---------------------------|---------------------------|
A|---------------------------|---------------------------|
E|---------------------------|---------------------------|


F
Zvonovi grmijo, bučanje v glavi, 
A
zvezde so razsute po travi. 
D                     c
Gluha je noČ, jebe se ji za vse.


F
Kje je zdaj moja prasica, 
A
kam ste šli vsi prjatli? 
D                     c
Sam sem v tej mokri travi.


E|-/6-----------6-6-5-------|-----------5---------------|
B|--------------------8-----|--6----6-8----8------------|
G|--------------------------|---------------------------|
D|--------------------------|---------------------------|
A|--------------------------|---------------------------|
E|--------------------------|---------------------------|


D           A#  c
Ti si pa tako lepa.
D           A#  c
Ti si pa tako lepa.


F
Zidovi se rušijo v moji glavi,
A
stene pokajo pod težo alkohola.
D
Slabo mi je,
c
ko mesec sveti.


F
Kje je zdaj moja prasica, 
A
kam ste šli vsi prjatli? 
D                     c
Sam sem v tej mokri travi.


D           A#  c
Ti si pa tako lepa 
D           A#  c
Ti si pa tako lepa


E           c  A
Ti si pa tako lepa 
E           c  A
Ti si pa tako lepa


G B A A
Februarja.




Tab by Čufko.
Tap to rate this tab
# A B C D E F G H I J K L M N O P Q R S T U V W X Y Z