Song name
# A B C D E F G H I J K L M N O P Q R S T U V W X Y Z

Nightwish - Away tab

e:--------------------------------------------------------------------------|
B:--------------------------------------------------------------------------|
G:--------5-----8-----------3-----5-----8--7--------------------------------|
D:--5--3--5--5--8--3--5-----3--3--5--5--8--7--5-----------------------------|
A:--5--3--3--5--6--3--5-----1--3--3--5--6--5--5-----------------------------|
E:--3--1-----3-----1--3--------1-----3--------3-----------------------------|

After the second chorus :
e:--------------------------------------------------------------------------|
B:--------------------------------------------------------------------------|
G:------7-------8-------7-----------8---5---7-------------------------------|
D:--8---7---8---8---5---7---3---5---8---5---7---3---------------------------|
A:--8---5---8---6---5---5---3---5---6---3---5---3---------------------------|
E:--6-------6-------3-------1---3---------------1---------------------------|

Chorus
e:--------------------------------------------------------------------------|
B:--------------------------------------------------------------------------|
G:--------5-----8------------------10---------------------------------------|
D:--5--3--5--5--8--3--5--------6---10---------------------------------------|
A:--5--3--3--5--6--3--5--------6----8---------------------------------------|
E:--3--1-----3-----1--3--------4--------------------------------------------|

e:--------------------------------------------------------------------------|
B:--------------------------------------------------------------------------|
G:--5--3-----5--------5-----8--3-----5--------5-----------------------------|
D:--5--3--3--5--6--8--5-----8--3--3--5--6--5--5-----------------------------|
A:--3--1--3--3--6--8--3-----6--1--3--3--6--5--3-----------------------------|
E:--------1-----4--6--------------1-----4--3--------------------------------|

e:--------------------------------------------------------------------------|
B:--------------------------------------------------------------------------|
G:--8--3-----5--------5-----8--3-----5--------5-----------FADE OUT...-------|
D:--8--3--3--5--6--8--5-----8--3--3--5--6--5--5-----------------------------|
A:--6--1--3--3--6--8--3-----6--1--3--3--6--5--3-----------------------------|
E:--------1-----4--6--------------1-----4--3--------------------------------|
Tap to rate this tab
 
# A B C D E F G H I J K L M N O P Q R S T U V W X Y Z