Song name
# A B C D E F G H I J K L M N O P Q R S T U V W X Y Z

Nightwish - Lappi I - Er?maaj?r tab

Lappi 1 - Er?maaj?r
Tuning: EADGBE

Intro

First Guitar                                                                    
E||--3----3--2--0--------|------------------|--3----3--2--0--------|
B||--0-------------------|------------------|----------------------|
G||--0-------------------|------------------|----------------------|
D||----------------------|------------------|----------------------|
A||----------------------|------------------|----------------------|
E||----------------------|------------------|----------------------|

Second Guitar
E||------------------7---|--7---7--5--3-----|-------------------7--|
B||----------------------|------------------|----------------------|
G||----------------------|------------------|----------------------|
D||----------------------|------------------|----------------------|
A||----------------------|------------------|----------------------|
E||----------------------|------------------|----------------------|


                                                                    
------------------|--3----3--2--0---------|--0----0----------------|
------------------|--------------------3--|----------3---0h3p0-----|
------------------|-----------------------|------------------------|
------------------|-----------------------|------------------------|
------------------|-----------------------|------------------------|
------------------|-----------------------|------------------------|

--7----7--5--3----|--------------------7--|--7----7--5-------------|
------------------|-----------------------|--------------8------7--|
------------------|-----------------------|------------------------|
------------------|-----------------------|------------------------|
------------------|-----------------------|------------------------|
------------------|-----------------------|------------------------|


                                                                      
--3----3--2--0------0--|--5----5/-7--7--------|--3----3--2--0--------|
--0-----------------0--|--3----3/-5--5--------|----------------------|
--0--------------------|----------------------|----------------------|
-----------------------|----------------------|----------------------|
-----------------------|----------------------|----------------------|
-----------------------|----------------------|----------------------|

----------------5--7---|----------------------|--7----7--5-----------|
--8----8--7--8---------|--7----7/-8--8--------|-------------8-----7--|
-----------------------|----------------------|----------------------|
-----------------------|----------------------|----------------------|
-----------------------|----------------------|----------------------|
-----------------------|----------------------|----------------------|


                                                                         
--0----0----------------|--3----3--2--0------0--|--5----5/-7--7--------||
----------3---0p3h0-----|--0-----------------0--|--3----3/-5--5--------||
------------------------|--0--------------------|----------------------||
------------------------|-----------------------|----------------------||
------------------------|-----------------------|----------------------||
------------------------|-----------------------|----------------------||

----------------5--7----|--7----7--5------------|----------------------||
--8----8--7---8---------|-------------8------7--|--7----7/-8--8--------||
------------------------|-----------------------|----------------------||
------------------------|-----------------------|----------------------||
------------------------|-----------------------|----------------------||
------------------------|-----------------------|----------------------||

Third Guitar:
     Am          Em   Am       Em   Am          Em   Dm       G
E||--0---0-0-0-0--0-|----0-0-0--0-|-0---0-0-0-0--0-|----1-1---3-3--||
B||--1---1-1-1-1--0-|---1--1-1--0-|-1---1-1-1-1--0-|---3--3---0-0--||
G||--2---2-2-2-2--0-|--2---2-2--0-|-2---2-2-2-2--0-|--2---2---0-0--||
D||--2---2-2-2-2--2-|-2----2----2-|-2---2-2-2-2--2-|-0--------0----||
A||-----------------|-------------|----------------|---------------||
E||-----------------|-------------|----------------|---------------||

End:
Em
|-0-----------|
|-0-----------|
|-0-----------|
|-2-----------|
|-2-----------|
|-0-----------|

Tap to rate this tab
# A B C D E F G H I J K L M N O P Q R S T U V W X Y Z