Song name
# A B C D E F G H I J K L M N O P Q R S T U V W X Y Z

Nightwish - Wish I Had An Angel tab

#----------------------------------PLEASE NOTE---------------------------------#
#This file is the author's own work and represents their interpretation of the #
#song. You may only use this file for private study, scholarship, or research. #
#------------------------------------------------------------------------------#

WISH I HAD AN ANGEL
As recorded by Nightwish
(From the 2004 Album ONCE)

Transcribed by Ivan - (peekaboo104@hotmail.com)
	

Words and Music by Tuomas Holopainen

Gtr I (D G C F A D) - 'Emppu Vuorinen'
Gtr II (D G C F A D) - 'Tuomas Holopainen - Strings'
Gtr III (D G C F A D) - 'Tuomas Holopainen - Synth I'
Gtr IV (D G C F A D) - 'Tuomas Holopainen - Church Organ'
Gtr V (D G C F A D) - 'Tuomas Holopainen - Orchestra Hit'
Gtr VI (D G C F A D) - 'Tuomas Holopainen - Synth II'

 Intro
  Moderately Fast Q=160
  N.C.
 2/4     4/4
  Gtr II
  W        W           W
|------||-19--------|-17---------|
|------||-19--------|-19---------|
|------||-19--------|-19---------|
|------||-----------|------------|
|------||-----------|------------|
|------||--2--------|-(2)--------|
           W          +W


   W            W            W           W
|-19---------|-17---------|-17--------|-16----||
|-19---------|-19---------|-19--------|-17----||
|-19---------|-19---------|-19--------|-16----||
|------------|------------|-----------|-------||
|------------|------------|-----------|-------||
|-(2)--------|-(2)--------|--5--------|--4----||
  +W           +W            W           W


  F#5           E5       F#5   E5F#5                  E5    F#5       G5F#5
                      >
   W                 +W                  W                W
|-14--------------|-(14)---------------|----------------|------------------|
|-14--------------|-(14)---------------|----------------|------------------|
|-14--------------|-(14)---------------|----------------|------------------|
|-----------------|--------------------|----------------|------------------|
|-----------------|--------------------|----------------|------------------|
|--2--------------|--(2)---------------|----------------|------------------|
|  W                 +W
|
| Gtr I
|  PM------------------------------|     PM-----------------------------|
|  E E E E E Q  E     E  E E E E E E E   E E E E E Q  E   E E E E e e e e
|-----------------|--------------------|----------------|------------------|
|-----------------|--------------------|----------------|------------------|
|-----------------|--------------------|----------------|------------------|
|--4---4---4----2-|---2--4-4---2-4-4---|-4---4---4----2-|-2-4-4---4-4-5-4--|
|--4---4---4----2-|---2--4-4---2-4-4---|-4---4---4----2-|-2-4-4---4-4-5-4--|
|--2---2---2----0-|---0--2-2---0-2-2---|-2---2---2----0-|-0-2-2---2-2-3-2--|


               E5    F#5   E5F#5         G5F#5 G5F#5     G5  A5  G#5 E5
  W                W                 W                 W
|----------------|-----------------|-----------------|------------------||
|----------------|-----------------|-----------------|------------------||
|----------------|-----------------|-----------------|------------------||
|----------------|-----------------|-----------------|------------------||
|----------------|-----------------|-----------------|------------------||
|----------------|-----------------|-----------------|------------------||
|
| PM-----------------------------------------------------------------|
| E E E E E Q  E   E E E E E E E E   E E E E E E E E   E E E E E E E E
|----------------|-----------------|-----------------|------------------||
|----------------|-----------------|-----------------|------------------||
|----------------|-----------------|-----------------|------------------||
|-4---4---4----2-|-2-4-4---2-4-4-4-|-4-4-5-4-4-5-4-4-|-4-5-5-7-7-6-6-2--||
|-4---4---4----2-|-2-4-4---2-4-4-4-|-4-4-5-4-4-5-4-4-|-4-5-5-7-7-6-6-2--||
|-2---2---2----0-|-0-2-2---0-2-2-2-|-2-2-3-2-2-3-2-2-|-2-3-3-5-5-4-4-0--||


 1st Verse - T.Turunen
  N.C.
  Gtr III
   W           +W            +W            +W
|-----------|-------------|-------------|---------|
|-14--------|-(14)--------|-(14)--------|-(14)----|
|-14--------|-(14)--------|-(14)--------|-(14)----|
|-16--------|-(16)--------|-(16)--------|-(16)----|
|-----------|-------------|-------------|---------|
|-----------|-------------|-------------|---------|
|
|  W            W             W             W
|-----------|-------------|-------------|---------|
|-----------|-------------|-------------|---------|
|-----------|-------------|-------------|---------|
|-----------|-------------|-------------|---------|
|-----------|-------------|-------------|---------|
|-----------|-------------|-------------|---------|


   W           +W            W            W
|-----------|-------------|-----------|-------------||
|-15--------|-(15)--------|-14--------|--12---------||
|-14--------|-(14)--------|-14--------|-(14)--------||
|-16--------|-(16)--------|-14--------|-(14)--------||
|-----------|-------------|-----------|-------------||
|-----------|-------------|-----------|-------------||
|
|                                         TP
|  W            W            W            H    H
|-----------|-------------|-----------|-------------||
|-----------|-------------|-----------|-------------||
|-----------|-------------|-----------|-------------||
|-----------|-------------|-----------|---xs===x----||
|-----------|-------------|-----------|---xs===x----||
|-----------|-------------|-----------|-------------||


   2nd and 3rd Verses
    F#5                            G5  E5
     W                 +W
||------------------|--------------------|
||o-14--------------|-(14)---------------|
||--14--------------|-(14)---------------|
||--16--------------|-(16)---------------|
||o-----------------|--------------------|
||------------------|--------------------|
|
|       PM--------------------------------
|    Q  e e e e e e     e  e e e e e e e
||------------------|--------------------|
||o-----------------|--------------------|
||------------------|--------------------|
||---4--4-4-4-4-4-4-|---4--4-4-4-4-5-5-2-|
||o--4--4-4-4-4-4-4-|---4--4-4-4-4-5-5-2-|
||---2--2-2-2-2-2-2-|---2--2-2-2-2-3-3-0-|


  F#5
   +W                   +W
|--------------------|--------------------|
|-(14)---------------|-(14)---------------|
|-(14)---------------|-(14)---------------|
|-(16)---------------|-(16)---------------|
|--------------------|--------------------|
|--------------------|--------------------|
|
|---------------------------------------|
|   e  e e e e e e e     e  e e e e e e e
|--------------------|--------------------|
|--------------------|--------------------|
|--------------------|--------------------|
|---4--4-4-4-4-4-4-4-|---4--4-4-4-4-4-4-4-|
|---4--4-4-4-4-4-4-4-|---4--4-4-4-4-4-4-4-|
|---2--2-2-2-2-2-2-2-|---2--2-2-2-2-2-2-2-|


                                          A5          E5
   W                  +W                   W            W
|------------------|--------------------|-----------|---------||
|-15---------------|-(15)---------------|-14--------|--12-----||
|-14---------------|-(14)---------------|-14--------|-(14)----||
|-16---------------|-(16)---------------|-14--------|-(14)----||
|------------------|--------------------|-----------|---------||
|------------------|--------------------|-----------|---------||
|
|  PM---------------------------------|
|  e e e e e e e e     e  e e e e e e e    W            W
|------------------|--------------------|-----------|---------||
|------------------|--------------------|-----------|---------||
|------------------|--------------------|-----------|---9-----||
|--4-4-4-4-4-4-4-4-|---4--4-4-4-4-4-4-4-|--7--------|---9-----||
|--4-4-4-4-4-4-4-4-|---4--4-4-4-4-4-4-4-|--7--------|---7-----||
|--2-2-2-2-2-2-2-2-|---2--2-2-2-2-2-2-2-|--5--------|---------||


 Pre-Chorus
  D5                G#5    E5F#5 E5F#5 E5F#5   E5F#5E5  F5E5
  W           W            W                 W
|----------|-------------|-----------------|-----------------|
|----------|-------------|-----------------|-----------------|
|----------|-------------|-----------------|-----------------|
|----------|-------------|-----------------|-----------------|
|----------|-------------|-----------------|-----------------|
|----------|-------------|-----------------|-----------------|
|
|                                                   PM----|
| W          +H     H      E E E E E E E E   E E Q  e e e e
|----------|-------------|-----------------|-----------------|
|----------|-------------|-----------------|-----------------|
|-7--------|-(7)---------|-----------------|-----------------|
|-7--------|-(7)----6----|-2-4---2-4---2-4-|---2-4--4-4-5-4--|
|-5--------|-(5)----6----|-2-4---2-4---2-4-|---2-4--4-4-5-4--|
|----------|--------4----|-0-2---0-2---0-2-|---0-2--2-2-3-2--|


  D5                G#5    G5         E5
  W           W            W          W
|----------|-------------|----------|--------------||
|----------|-------------|----------|--------------||
|----------|-------------|----------|--------------||
|----------|-------------|----------|--------------||
|----------|-------------|----------|--------------||
|----------|-------------|----------|--------------||
|
| W          +H     H      W          E E E E H
|----------|-------------|----------|--------------||
|----------|-------------|----------|--------------||
|-7--------|-(7)---------|----------|-9---9--------||
|-7--------|-(7)----6----|-7--------|-9---9--------||
|-5--------|-(5)----6----|-7--------|-7---7--------||
|----------|--------4----|-5--------|--------------||


 Chorus
  F#5
   W                 +W
|-14--------------|-(14)---------------|
|-----------------|--------------------|
|-----------------|--------------------|
|-----------------|--------------------|
|-----------------|--------------------|
|-----------------|--------------------|
|
|     PM--------------------------------
|  Q  e e e e e e     e  e e e e e e e
|-----------------|--------------------|
|-----------------|--------------------|
|-----------------|--------------------|
|--4--4-4-4-4-4-4-|---4--4-4-4-4-4-4-4-|
|--4--4-4-4-4-4-4-|---4--4-4-4-4-4-4-4-|
|--2--2-2-2-2-2-2-|---2--2-2-2-2-2-2-2-|


   +W                   +W
|-(14)---------------|-(14)----------------|
|--------------------|---------------------|
|--------------------|---------------------|
|--------------------|---------------------|
|--------------------|---------------------|
|--------------------|---------------------|
|
|---------------------------------------|
|   e  e e e e e e e     e  e E e e E e E
|--------------------|---------------------|
|--------------------|---------------------|
|--------------------|---------------------|
|---4--4-4-4-4-4-4-4-|---4--4-4-4-4-4-4-4--|
|---4--4-4-4-4-4-4-4-|---4--4-4-4-4-4-4-4--|
|---2--2-2-2-2-2-2-2-|---2--2-2-2-2-2-2-2--|


  D5                                        E5          E5
   +W                   +W                   W           W
|-(14)---------------|-(14)---------------|-12--------|-16----|
|--------------------|--------------------|-----------|-17----|
|--------------------|--------------------|-----------|-16----|
|--------------------|--------------------|-----------|-18----|
|--------------------|--------------------|-----------|-------|
|--------------------|--------------------|-----------|-------|
|
|   PM----------------------------------|
|   e  e e e e e e e     e  e e e e e e E    W           W
|--------------------|--------------------|-----------|-------|
|--------------------|--------------------|-----------|-------|
|---7--7-7-7-7-7-7-7-|---7--7-7-7-7-7-7-7-|-----------|--9----|
|---7--7-7-7-7-7-7-7-|---7--7-7-7-7-7-7-7-|--2--------|--9----|
|---5--5-5-5-5-5-5-5-|---5--5-5-5-5-5-5-5-|--2--------|--7----|
|--------------------|--------------------|--0--------|-------|


  F#5                                   G#5                A5
   W                  W                  W                  W
|-14---------------|-14---------------|-12---------------|-12----------------|
|-15---------------|-14---------------|-12---------------|-14----------------|
|-16---------------|-14---------------|-13---------------|-14----------------|
|------------------|------------------|------------------|-------------------|
|------------------|------------------|------------------|-------------------|
|------------------|------------------|------------------|-------------------|
|
|  PM---------------------------------------------------------------------|
|  e e e e e e e e    e e e e e e e e    e e e e e e e e    e e e e e e e e
|------------------|------------------|------------------|-------------------|
|------------------|------------------|------------------|-------------------|
|------------------|------------------|------------------|-------------------|
|--4-4-4-4-4-4-4-4-|--4-4-4-4-4-4-4-4-|--6-6-6-6-6-6-6-6-|--7-7-7-7-7-7-7-7--|
|--4-4-4-4-4-4-4-4-|--4-4-4-4-4-4-4-4-|--6-6-6-6-6-6-6-6-|--7-7-7-7-7-7-7-7--|
|--2-2-2-2-2-2-2-2-|--2-2-2-2-2-2-2-2-|--4-4-4-4-4-4-4-4-|--5-5-5-5-5-5-5-5--|


                    1.
  B5                 D5             C#5            A5
   W                   Q.             Q.            Q
|-14---------------|--14-------------16------------17---|
|-15---------------|--15-------------17------------17---|
|-16---------------|--14-------------18------------18---|
|------------------|------------------------------------|
|------------------|------------------------------------|
|------------------|------------------------------------|
|
|  PM----------------------------------------------------
|  e e e e e e e e     e    e    e    e    e    e   e e
|------------------|------------------------------------|
|------------------|------------------------------------|
|------------------|------------------------------------|
|--9-9-9-9-9-9-9-9-|-(12)-(12)-(12)-(11)-(11)-(11)--7-7-|
|--9-9-9-9-9-9-9-9-|--12---12---12---11---11---11---7-7-|
|--7-7-7-7-7-7-7-7-|--10---10---10----9----9----9---5-5-|


                                          2.
  F#5           E5       F#5               D5      E5
                      >
   W                 +W                     H       H
|-14--------------|-(14)----------------||-14------16--------||
|-----------------|--------------------o||-15------17--------||
|-16--------------|-(16)----------------||-14------16--------||
|-16--------------|-(16)----------------||-------------------||
|-----------------|--------------------o||-------------------||
|-----------------|---------------------||-------------------||
|
|                            \6
|-|    PM  PM   PM---------|                PM|     PM|
|  E E E E E Q  E     E  E E E  +H          E E Q   E E Q
|-----------------|---------------------||-------------------||
|-----------------|--------------------o||-------------------||
|-----------------|---------------------||--7-7-7---9-9-9----||
|--4---4---4----2-|---2--4-4------------||--7-7-7---9-9-9----||
|--4---4---4----2-|---2--4-4-----------o||--5-5-5---7-7-7----||
|--2---2---2----0-|---0--2-2-0--(0)-----||-------------------||


 Breakdown
      F#5E5F#5 E5         F#5                G5 E5           A5G#G5
                     >
   W                +W                 W              W
|-14-------------|-(14)--------------|--------------|---------------||
|----------------|-------------------|--------------|---------------||
|-16-------------|-(16)--------------|--------------|---------------||
|-16-------------|-(16)--------------|--------------|---------------||
|----------------|-------------------|--------------|---------------||
|----------------|-------------------|--------------|---------------||
|
|        PM--------------------------------|                 PM--|
|                             |-3-|    |-3-|
|  Q  Q  E E E E     E  E E E Q Q Q    Q Q Q Q  Q     H    E E E E
|----------------|-------------------|--------------|---------------||
|----------------|-------------------|--------------|---------------||
|----------------|-------------------|--------------|---------------||
|-----4--2-4---2-|------2-4---4-4-4--|-4-4-4-5--2---|--------7-6-5--||
|-----4--2-4---2-|------2-4---4-4-4--|-4-4-4-5--2---|--------7-6-5--||
|-----2--0-2---0-|------0-2---2-2-2--|-2-2-2-3--0---|--------5-4-3--||


 Synth Solo - T.Holopainen
  E5                             F#5 G5  E5                          D5
  Gtr IV
  H       H            H       H         H       H         H       H
|-0-------7---------|--8-------5-------|-7-------3-------|-7-------5------|
|-------------------|------------------|-----------------|----------------|
|-------------------|------------------|-----------------|----------------|
|-2-------9---------|-10-------7-------|-9-------5-------|-9-------7------|
|-------------------|------------------|-----------------|----------------|
|-0-------7---------|--8-------5-------|-7-------3-------|-7-------5------|
|
| PM---------------------------------------------------------------|
| E E E E E E E S S    E E E E E E E E   E E E E E E E E   E E E E E Q.
|-------------------|------------------|-----------------|----------------|
|-------------------|------------------|-----------------|----------------|
|-------------------|------------------|-----------------|-----------7----|
|-2-2---2---2---2-2-|--2-2---2---4-4-5-|-2-2---2---2---2-|---2---2---7----|
|-2-2---2---2---2-2-|--2-2---2---4-4-5-|-2-2---2---2---2-|---2---2---5----|
|-0-0---0---0---0-0-|--0-0---0---2-2-3-|-0-0---0---0---0-|---0---0--------|


  E5                             F#5 G5  E5                G5   D5
  H       H            H       H         H       H         H    H
|-0-------7---------|--8-------5-------|-7-------3-------|-7----5----||
|-------------------|------------------|-----------------|-----------||
|-------------------|------------------|-----------------|-----------||
|-2-------9---------|-10-------7-------|-9-------5-------|-9----7----||
|-------------------|------------------|-----------------|-----------||
|-0-------7---------|--8-------5-------|-7-------3-------|-7----5----||
|
| PM---------------------------------------------------|
| E E E E E E E S S    E E E E E E E E   E E E E E E E E   H    H
|-------------------|------------------|-----------------|-----------||
|-------------------|------------------|-----------------|-----------||
|-------------------|------------------|-----------------|------7----||
|-2-2---2---2---2-2-|--2-2---2---4-4-5-|-2-2---2---2---2-|-5----7----||
|-2-2---2---2---2-2-|--2-2---2---4-4-5-|-2-2---2---2---2-|-5----5----||
|-0-0---0---0---0-0-|--0-0---0---2-2-3-|-0-0---0---0---0-|-3---------||


 Bridge - M.Hietala
  F#5          G5  F#5           E5  F#5           G5        N.C.
  Gtr V
  W                W                 W                 W
|----------------|-----------------|-----------------|--------------------|
|----------------|-----------------|-----------------|--------------------|
|----------------|-----------------|-----------------|--------------------|
|----------------|-----------------|-----------------|--------------------|
|----------------|-----------------|-----------------|--------------------|
|----------------|-----------------|-----------------|--------------------|
|
| PM-------------------------------------------------------|           ~
| E E E E E Q  E   E E E E E E E E   E E E E E E E E   E E E E E E  a  Q
|----------------|-----------------|-----------------|--------------------|
|----------------|-----------------|-----------------|--------------------|
|----------------|-----------------|-----------------|--------------------|
|-4---4---4----5-|-4---4---4---4-2-|-4---4---4---4-5-|-5---5--------------|
|-4---4---4----5-|-4---4---4---4-2-|-4---4---4---4-5-|-5---5-2-4-5-(5)s8--|
|-2---2---2----3-|-2---2---2---2-0-|-2---2---2---2-3-|-3---3--------------|


  F#5                            C#5                          G5   E5F#G5Bb5
                                 Gtr II  Gtr V
   E E  E E  E E Q      E E  E E  H       E E  E E  E E Q     W
|-14---14---14-------|-14---14---21----|-14---14---14-------|----------------||
|-14---14---14-------|-14---14---21----|-14---14---14-------|----------------||
|-14---14---14-------|-14---14---21----|-14---14---14-------|----------------||
|-16---16---16-------|-16---16---23----|-16---16---16-------|----------------||
|-16---16---16-------|-16---16---------|-16---16---16-------|----------------||
|-14---14---14-------|-14---14---------|-14---14---14-------|----------------||
|
|  PM-----------------------|             PM------------------|    PM--|
|  E E  E E  E Q   E    E E  E E  H       E E  E E  E E E E   E Q  E E E Q
|--------------------|-----------------|--------------------|----------------||
|--------------------|-----------------|--------------------|----------------||
|--------------------|------------6----|--------------------|----------------||
|--4----4----4-----5-|--4----4----6----|--4----4----4---4-4-|-5----2-4-5-8---||
|--4----4----4-----5-|--4----4----4----|--4----4----4---4-4-|-5----2-4-5-8---||
|--2----2----2-----3-|--2----2---------|--2----2----2---2-2-|-3----0-2-3-6---||


 Bridge - T.Turunen
  E5                                F#5 G5
  Gtr IV
   W                    +W
|-12-----------------|-(12)---------------|
|--------------------|--------------------|
|--------------------|--------------------|
|--------------------|--------------------|
|--------------------|--------------------|
|--------------------|--------------------|
|
| Gtr I
|  PM--------------------------------------
|  E E E E E E E S S     E  E E E E E E E
|--------------------|--------------------|
|--------------------|--------------------|
|--------------------|--------------------|
|--2-2---2---2---2-2-|---2--2---2---4-4-5-|
|--2-2---2---2---2-2-|---2--2---2---4-4-5-|
|--0-0---0---0---0-0-|---0--0---0---2-2-3-|


  E5                                D5
   +W                   +W
|-(12)---------------|-(12)--------------|
|--------------------|-------------------|
|--------------------|-------------------|
|--------------------|-------------------|
|--------------------|-------------------|
|--------------------|-------------------|
|
|---------------------------------|
|   E  E E E E E E E     E  E E E E Q.
|--------------------|-------------------|
|--------------------|-------------------|
|--------------------|--------------7----|
|---2--2---2---2---2-|------2---2---7----|
|---2--2---2---2---2-|------2---2---5----|
|---0--0---0---0---0-|------0---0--------|


  E5                                                           G5      D5
   W                    +W                    +W                +W
|-12-----------------|-(12)----------------|-(12)------------|-(12)---------||
|--------------------|---------------------|-----------------|--------------||
|--------------------|---------------------|-----------------|--------------||
|--------------------|---------------------|-----------------|--------------||
|--------------------|---------------------|-----------------|--------------||
|--------------------|---------------------|-----------------|--------------||
|
|  PM-------------------------|  ~~~~~~~~~~~~~~~~~   PM----|
|  E E E E E E E S S     E  E E  E  +H         H     e e e e     H     H
|--------------------|---------------------|-----------------|--------------||
|--------------------|---------------------|-----------------|--------------||
|--------------------|---------------------|--[4]------------|---------7----||
|--2-2---2---2---2-2-|---2--2---[2]-(2)----|-----------------|---5-----7----||
|--2-2---2---2---2-2-|---2--2--------------|---------2-2-2-2-|---5-----5----||
|--0-0---0---0---0-0-|---0--0--------------|---------0-0-0-0-|---3----------||


 SynthBreak - T.Holopainen
  C5                       F#5   E5
  Gtr VI
   W           Q.    Q.     Q     +Q     H.         +H     H
|-----------|------------------|-------/19-------|-(19)---------|
|-17--------|-17----20-----19--|-(19)------------|--------------|
|-----------|------------------|-----------------|--------------|
|-----------|------------------|-----------------|--------------|
|-----------|------------------|-----------------|--------------|
|-----------|------------------|-----------------|--------------|
|
|  W          +H        H          W                +W
|-----------|------------------|-----------------|--------------|
|-----------|------------------|-----------------|--------------|
|--5--------|-(5)--------------|-----------------|--------------|
|--5--------|-(5)-------4------|---2-------------|--(2)---------|
|--3--------|-(3)-------4------|---2-------------|--(2)---------|
|-----------|-----------2------|---0-------------|--(0)---------|


  C5                    F#5      G5          D5
   W           Q.    Q.     Q     W           W
|-----------|------------------|-----------|-------||
|-17--------|-17----20-----19--|-20--------|-19----||
|-----------|------------------|-----------|-------||
|-----------|------------------|-----------|-------||
|-----------|------------------|-----------|-------||
|-----------|------------------|-----------|-------||
|
|  W          +H        H         W           W
|-----------|------------------|-----------|-------||
|-----------|------------------|-----------|-------||
|--5--------|-(5)--------------|-----------|--7----||
|--5--------|-(5)-------4------|--5--------|--7----||
|--3--------|-(3)-------4------|--5--------|--5----||
|-----------|-----------2------|--3--------|-------||


 Breakdown
  Gtr II
   W           W           W           W
|-17--------|-15--------|-17--------|-15----|
|-17--------|-17--------|-17--------|-17----|
|-17--------|-17--------|-17--------|-17----|
|-----------|-----------|-----------|-------|
|-----------|-----------|-----------|-------|
|-12--------|-----------|-----------|-------|
|  W
|
|  W           W           W           W
|-----------|-----------|-----------|-------|
|-----------|-----------|-----------|-------|
|-----------|-----------|-----------|-------|
|-----------|-----------|-----------|-------|
|-----------|-----------|-----------|-------|
|-----------|-----------|-----------|-------|


   W           W           W           +W
|-15--------|-14--------|-12--------|-(12)----||
|-17--------|-15--------|-12--------|-(12)----||
|-17--------|-17--------|-12--------|-(12)----||
|-----------|-----------|-----------|---------||
|-----------|-----------|-----------|---------||
|-----------|-10--------|--0--------|--(0)----||
|              W           W           +W
|
|  W           W           W            W
|-----------|-----------|-----------|---------||
|-----------|-----------|-----------|---------||
|-----------|-----------|-----------|---------||
|-----------|-----------|-----------|---------||
|-----------|-----------|-----------|---------||
|-----------|-----------|-----------|---------||


 Outro-Chorus
  W           W                  +W                   +W
|----------|-14---------------|-(14)---------------|-(14)----------------|
|----------|------------------|--------------------|---------------------|
|----------|------------------|--------------------|---------------------|
|----------|------------------|--------------------|---------------------|
|----------|------------------|--------------------|---------------------|
|----------|------------------|--------------------|---------------------|
|
|             PM------------------------------------------------------|
| W           e e e e e e e e     e  e e e e e e e     e  e e e e e e e
|----------|------------------|--------------------|---------------------|
|----------|------------------|--------------------|---------------------|
|----------|------------------|--------------------|---------------------|
|----------|--4-4-4-4-4-4-4-4-|---4--4-4-4-4-4-4-4-|---4--4-4-4-4-4-4-4--|
|----------|--4-4-4-4-4-4-4-4-|---4--4-4-4-4-4-4-4-|---4--4-4-4-4-4-4-4--|
|----------|--2-2-2-2-2-2-2-2-|---2--2-2-2-2-2-2-2-|---2--2-2-2-2-2-2-2--|


                       D5                                        E5
   +W                   +W                   +W                   W
|-(14)---------------|-(14)---------------|-(14)---------------|-12----|
|--------------------|--------------------|--------------------|-------|
|--------------------|--------------------|--------------------|-------|
|--------------------|--------------------|--------------------|-------|
|--------------------|--------------------|--------------------|-------|
|--------------------|--------------------|--------------------|-------|
|
|   PM-------------------------------------------------------|
|   e  e E e e E e E     e  e e e e e e e     e  e e e e e e E    W
|--------------------|--------------------|--------------------|-------|
|--------------------|--------------------|--------------------|-------|
|--------------------|--------------------|--------------------|-------|
|---4--4-4-4-4-4-4-4-|---7--7-7-7-7-7-7-7-|---7--7-7-7-7-7-7-7-|--2----|
|---4--4-4-4-4-4-4-4-|---5--5-5-5-5-5-5-5-|---5--5-5-5-5-5-5-5-|--2----|
|---2--2-2-2-2-2-2-2-|--------------------|--------------------|--0----|


  E5          F#5                                   G#5
   W           W                  W                  W
|-16--------|-14---------------|-14---------------|-12----------------|
|-17--------|-15---------------|-14---------------|-12----------------|
|-16--------|-16---------------|-14---------------|-13----------------|
|-18--------|------------------|------------------|-------------------|
|-----------|------------------|------------------|-------------------|
|-----------|------------------|------------------|-------------------|
|
|              PM--------------------------------------------------|
|  W           e e e e e e e e    e e e e e e e e    e e e e e e e e
|-----------|------------------|------------------|-------------------|
|-----------|------------------|------------------|-------------------|
|--9--------|------------------|------------------|-------------------|
|--9--------|--4-4-4-4-4-4-4-4-|--4-4-4-4-4-4-4-4-|--6-6-6-6-6-6-6-6--|
|--7--------|--4-4-4-4-4-4-4-4-|--4-4-4-4-4-4-4-4-|--6-6-6-6-6-6-6-6--|
|-----------|--2-2-2-2-2-2-2-2-|--2-2-2-2-2-2-2-2-|--4-4-4-4-4-4-4-4--|


  A5                 B5                 D5     E5           F#5E5F#5 E5
   W                  W                  H      H        W
|-12---------------|-14---------------|-14-----16-----|-14--------------||
|-14---------------|-15---------------|-15-----17-----|-----------------||
|-14---------------|-16---------------|-14-----16-----|-16--------------||
|------------------|------------------|---------------|-16--------------||
|------------------|------------------|---------------|-----------------||
|------------------|------------------|---------------|-----------------||
|
|  PM-------------------------------|
|  e e e e e e e e    e e e e e e e e    Q  Q   Q  Q     Q  Q  E E E E
|------------------|------------------|---------------|-----------------||
|------------------|------------------|---------------|-----------------||
|------------------|------------------|--7--7---9--9--|-----------------||
|--7-7-7-7-7-7-7-7-|--9-9-9-9-9-9-9-9-|--7--7---9--9--|-----------------||
|--7-7-7-7-7-7-7-7-|--9-9-9-9-9-9-9-9-|--5--5---7--7--|-----4--2-4---2--||
|--5-5-5-5-5-5-5-5-|--7-7-7-7-7-7-7-7-|---------------|-----2--0-2---0--||


 Outro
  F#5                E5F#5 E5F#5                      E5F#5       G5F#5
  Gtr V
  W                W                 W                W
|----------------|-----------------|----------------|------------------|
|----------------|-----------------|----------------|------------------|
|----------------|-----------------|----------------|------------------|
|----------------|-----------------|----------------|------------------|
|----------------|-----------------|----------------|------------------|
|----------------|-----------------|----------------|------------------|
|
| PM----------------------------------------------------------------|
| E E E E E Q  E   E E E E E E E E   E E E E E Q  E   E E E E e e e e
|----------------|-----------------|----------------|------------------|
|----------------|-----------------|----------------|------------------|
|----------------|-----------------|----------------|------------------|
|----------------|-----------------|----------------|------------------|
|-4---4---4----4-|-4-2-4---2-4-4---|-4---4---4----4-|-2-4-4---4-4-5-4--|
|-2---2---2----2-|-2-0-2---0-2-2---|-2---2---2----2-|-0-2-2---2-2-3-2--|


                     E5F#5 E5F#5 E5    F#5 G5  F#5 E5    F#5 A5  G#5 E5
  W                W                 W                 W
|----------------|-----------------|-----------------|------------------|
|----------------|-----------------|-----------------|------------------|
|----------------|-----------------|-----------------|------------------|
|----------------|-----------------|-----------------|------------------|
|----------------|-----------------|-----------------|------------------|
|----------------|-----------------|-----------------|------------------|
|
| PM-----------------------------------------------------------------|
| E E E E E Q  E   E E E E E E E E   E E E E E E E E   E E E E E E E E
|----------------|-----------------|-----------------|------------------|
|----------------|-----------------|-----------------|------------------|
|----------------|-----------------|-----------------|------------------|
|----------------|-----------------|-----------------|------------------|
|-4---4---4----4-|-4-2-4---2-4-4-2-|-2-4-4-5-5-4-4-2-|-2-4-4-7-7-6-6-2--|
|-2---2---2----2-|-2-0-2---0-2-2-0-|-0-2-2-3-3-2-2-0-|-0-2-2-5-5-4-4-0--|


  F#5
  W                W              W                W
|----------------|--------------|----------------|--------------|
|----------------|--------------|----------------|--------------|
|----------------|--------------|----------------|--------------|
|----------------|--------------|----------------|--------------|
|----------------|--------------|----------------|--------------|
|----------------|--------------|----------------|--------------|
|
| PM---------------------|        PM---------------------|
| E E E E E Q  E   E E E E H      E E E E E Q  E   E E E E H
|----------------|--------------|----------------|--------------|
|----------------|--------------|----------------|--------------|
|----------------|--------------|----------------|--------------|
|----------------|--------------|----------------|--------------|
|-4---4---4----4-|-4---4---4----|-4---4---4----4-|-4---4---4----|
|-2---2---2----2-|-2---2---2----|-2---2---2----2-|-2---2---2----|


  W                W              W                H       E E E E
|----------------|--------------|----------------|---------2-2-2----*|
|----------------|--------------|----------------|---------2-2-2----*|
|----------------|--------------|----------------|---------2-2-2----*|
|----------------|--------------|----------------|---------4-4-4----*|
|----------------|--------------|----------------|---------4-4-4----*|
|----------------|--------------|----------------|---------2-2-2----*|
|
| PM---------------------|        PM---------------------|
| E E E E E Q  E   E E E E H      E E E E E Q  E   E E E E E E E E
|----------------|--------------|----------------|------------------*|
|----------------|--------------|----------------|------------------*|
|----------------|--------------|----------------|------------------*|
|----------------|--------------|----------------|---------4-4-4----*|
|-4---4---4----4-|-4---4---4----|-4---4---4----4-|-4---4---4-4-4----*|
|-2---2---2----2-|-2---2---2----|-2---2---2----2-|-2---2---2-2-2----*|



Duration Legend
---------------
W - whole; H - half; Q - quarter; E - 8th; S - 16th; T - 32nd; X - 64th; a - acciaccatura
+ - note tied to previous; . - note dotted; .. - note double dotted
Uncapitalized letters represent notes that are staccato (1/2 duration)
Irregular groupings are notated above the duration line
Duration letters will always appear directly above the note/fret number it represents the
duration for.  Duration letters with no fret number below them represent rests.  Multi-
bar rests are notated in the form Wxn, where n is the number of bars to rest for.  Low
melody durations appear below the staff

Tablature Legend
----------------
 h   - hammer-on
 p   - pull-off
 b   - bend
 pb  - pre-bend
 r   - bend release (if no number after the r, then release immediately)
 /\  - slide into or out of (from/to "nowhere")
 s   - legato slide
 S   - shift slide
 - natural harmonic
[n]  - artificial harmonic
n(n) - tapped harmonic
 ~   - vibrato
 tr  - trill
 T   - tap
 TP  - trem. picking
 PM  - palm muting
\n/  - tremolo bar dip; n = amount to dip
 \n  - tremolo bar down
 n/  - tremolo bar up
/n\  - tremolo bar inverted dip
 =   - hold bend; also acts as connecting device for hammers/pulls
 <> - volume swell (louder/softer)
 x   - on rhythm slash represents muted slash
 o   - on rhythm slash represents single note slash

Misc Legend
-----------
 |  - bar
||  - double bar
||o - repeat start
o|| - repeat end
*|  - double bar (ending)
 :  - bar (freetime)
 $  - Segno
 &  - Coda
Tempo markers -  = BPM(8/16=s8/s16), where s8 = swing 8ths, s16 = swing 16ths

Tap to rate this tab
 
# A B C D E F G H I J K L M N O P Q R S T U V W X Y Z