Song name
# A B C D E F G H I J K L M N O P Q R S T U V W X Y Z

Nightwish - Stargazers tab

#----------------------------------PLEASE NOTE---------------------------------#
#This file is the author's own work and represents their interpretation of the #
#song. You may only use this file for private study, scholarship, or research. #
#------------------------------------------------------------------------------#

STARGAZERS
As recorded by Nightwish

Transcribed by unregistered
	



Gtr I (E A D G B E) - 'Strings'
Gtr II (E A D G B E) - 'Lead Guitar'
Gtr III (E A D G B E) - 'Rhytm Guitar'
Gtr IV (E A D G B E) - 'Harpsichord'

 Intro
  Q=125
  Gm                      F         Gm                    F
 4/4
  Gtr I
  h    s  s  s  s  s  +s   E    +S  h     s  s  s  s  +s    E
|--------10-10-10-10-(10)--8-|--(8)------10-10-10-10-(10)---8-|
|----------------------------|--------------------------------|
|--------12-12-12-12-(12)-10-|-(10)------12-12-12-12-(12)--10-|
|--------12-12-12-12-(12)-10-|-(10)------12-12-12-12-(12)--10-|
|--------10-10-10-10-(10)--8-|--(8)------10-10-10-10-(10)---8-|
|----------------------------|--------------------------------|
|
| Gtr III
| H    S  S  S  S  S  +S   E    +S  H     S  S  S  S  +S    E
|----------------------------|--------------------------------|
|----------------------------|--------------------------------|
|----------------------------|--------------------------------|
|---------5--5--5--5--(5)--3-|--(3)-------5--5--5--5--(5)---3-|
|---------5--5--5--5--(5)--3-|--(3)-------5--5--5--5--(5)---3-|
|---------3--3--3--3--(3)--1-|--(1)-------3--3--3--3--(3)---1-|


  Gm                    F
   +S  h     s  s  s  s  +s   E
|--(8)------10-10-10-10-(10)--8--|
|--------------------------------|
|-(10)------12-12-12-12-(12)-10--|
|-(10)------12-12-12-12-(12)-10--|
|--(8)------10-10-10-10-(10)--8--|
|--------------------------------|
|
|  +S  H     S  S  S  S  +S   E
|--------------------------------|
|--------------------------------|
|--------------------------------|
|--(3)-------5--5--5--5--(5)--3--|
|--(3)-------5--5--5--5--(5)--3--|
|--(1)-------3--3--3--3--(3)--1--|


  Eb                 C
   E.  S  S  S  S  S  S  S  S  S  S  S  S  S
|--------------------20----------------------|
|-16--15----------------20-18-20----20----20-|
|--------17-15-14-15-17----------20----19----|
|-13--12----------------17-15-17----17----17-|
|--------15-13-12-13-------------18----17----|
|--------------------------------------------|
|
| Gtr II
|  E.  S  S  S  S  S  S  S  S  S  S  S  S  S
|--------------------------------------------|
|--------------------------------------------|
|--8---7--5-----------5----------------------|
|------------8--7--8-----5-----5-----5-----5-|
|---------------------------8-----6-----5----|
|--------------------------------------------|
|
| Gtr III
|  H                  H
|--------------------------------------------|
|--------------------------------------------|
|--8------------------5----------------------|
|--8------------------5----------------------|
|--6------------------3----------------------|
|--------------------------------------------|


  Gm                 F         Gm                    F
  h    s  s  s  s  s  +s   E    +S  h     s  s  s  s  +s   E
|--------10-10-10-10-(10)--8-|--(8)------10-10-10-10-(10)--8-|
|----------------------------|-------------------------------|
|--------12-12-12-12-(12)-10-|-(10)------12-12-12-12-(12)-10-|
|--------12-12-12-12-(12)-10-|-(10)------12-12-12-12-(12)-10-|
|--------10-10-10-10-(10)--8-|--(8)------10-10-10-10-(10)--8-|
|----------------------------|-------------------------------|
|
| W                              W
|----------------------------|-------------------------------|
|----------------------------|-------------------------------|
|----------------------------|-------------------------------|
|----------------------------|-------------------------------|
|----------------------------|-------------------------------|
|----------------------------|-------------------------------|
|
| H    S  S  S  S  S  +S   E    +S  H     S  S  S  S  +S   E
|----------------------------|-------------------------------|
|----------------------------|-------------------------------|
|----------------------------|-------------------------------|
|---------5--5--5--5--(5)--3-|--(3)-------5--5--5--5--(5)--3-|
|---------5--5--5--5--(5)--3-|--(3)-------5--5--5--5--(5)--3-|
|---------3--3--3--3--(3)--1-|--(1)-------3--3--3--3--(3)--1-|


  Gm                    F         Eb                 F
   +S  h     s  s  s  s  +s   E    E.  S  S  S  S  S  S  S  S  S  S  S  S  S
|--(8)------10-10-10-10-(10)--8-|-23--22-20----------20----20----20----20----|
|-------------------------------|-----------23-22-23----23----22----20----18-|
|-(10)------12-12-12-12-(12)-10-|-20--19-17----------17----17----17----17----|
|-(10)------12-12-12-12-(12)-10-|-----------20-19-20----20----19----17----15-|
|--(8)------10-10-10-10-(10)--8-|--------------------------------------------|
|-------------------------------|--------------------------------------------|
|
|   W                              E.  S  S  S  S  S  S  S  S  S  S  S  S  S
|-------------------------------|--------------------------------------------|
|-------------------------------|--------------------------------------------|
|-------------------------------|--8---7--5-----------5----------------------|
|-------------------------------|------------8--7--8-----8-----7-----5-------|
|-------------------------------|------------------------------------------8-|
|-------------------------------|---------------------------8-----8-----8----|
|
|  +S  H     S  S  S  S  +S   E    H                  H
|-------------------------------|--------------------------------------------|
|-------------------------------|--------------------------------------------|
|-------------------------------|--3-----------------------------------------|
|--(3)-------5--5--5--5--(5)--3-|--1------------------3----------------------|
|--(3)-------5--5--5--5--(5)--3-|--1------------------3----------------------|
|--(1)-------3--3--3--3--(3)--1-|---------------------1----------------------|


  Gm                   G#                 D                 Gm
  Gtrs I, II, IV
   S  S S  S  S S S  S S  S S S S S S S   S S S S  S S  S S  S S S  S S S  S S
|---------------------------------------|------------6------10-8-6----8-6------|
|-------------------------------7-8-7---|-----7-8-10---10-8--------10-----10-8-|
|---------------8-7---------7-8-------8-|-7-8----------------------------------|
|-------9-10-12-----10-9-10-------------|--------------------------------------|
|-10-11---------------------------------|--------------------------------------|
|---------------------------------------|--------------------------------------|
|
| Gtr III
|  S  S S  S  S S S  S S  S S S S S S S   S S S S  S S  S S  S S S  S S S  S S
|---------------------------------------|--------------------------------------|
|---------------------------------------|--------------------------------------|
|---------------------------------------|--------------------------------------|
|---------------------------------------|--------------------------------------|
|---------------------------------------|-5-5-5-5--5-5--5-5--------------------|
|--3--3-3--3--3-3-3--3-4--4-4-4-4-4-4-4-|--------------------3-3-3--3-3-3--3-3-|


  Eb                   C
  S  S S  S S  S  S  S  S S  S S S S S S
|------8-10-8----------------------------|
|-------------11-10-11----8----8---8---8-|
|-8-10----------------------10---8---7---|
|----------------------10----------------|
|----------------------------------------|
|----------------------------------------|
|
| S  S S  S S  S  S  S  S S  S S S S S S
|----------------------------------------|
|----------------------------------------|
|----------------------------------------|
|-1--1-1--1-1--1--1--1-------------------|
|-----------------------3-3--3-3-3-3-3-3-|
|----------------------------------------|


  Gm                   G#
   S  S S  S  S S S  S S  S S S S S S S
|---------------------------------------|
|-------------------------------7-8-7---|
|---------------8-7---------7-8-------8-|
|-------9-10-12-----10-9-10-------------|
|-10-11---------------------------------|
|---------------------------------------|
|
|  S  S S  S  S S S  S S  S S S S S S S
|---------------------------------------|
|---------------------------------------|
|---------------------------------------|
|---------------------------------------|
|---------------------------------------|
|--3--3-3--3--3-3-3--3-4--4-4-4-4-4-4-4-|


  D                 Gm
  Gtrs I, II
  S S S S  S S  S S  S S S  S S S  S S
|------------6------10-8-6----8-6------|
|-----7-8-10---10-8--------10-----10-8-|
|-7-8----------------------------------|
|--------------------------------------|
|--------------------------------------|
|--------------------------------------|
|
| Gtr IV
| S S S S  S S  S S  S S S  S S S  S S
|------------6------10-8-6----8-6------|
|-----7-8-10---10-8--------10-----10-8-|
|-7-8----------------------------------|
|--------------------------------------|
|--------------------------------------|
|--------------------------------------|
|
| Gtr III
| S S S S  S S  S S  S S S  S S S  S S
|--------------------------------------|
|--------------------------------------|
|--------------------------------------|
|--------------------------------------|
|-5-5-5-5--5-5--5-5--------------------|
|--------------------3-3-3--3-3-3--3-3-|


  Eb                      F
   S  S  S  S  S  S  S  S  S  S  S  S  S  S  S  S
|--------8-13-11-10--8-10-11-10-11----11----11----|
|-10-11----------------------------13----11----13-|
|-------------------------------------------------|
|-------------------------------------------------|
|-------------------------------------------------|
|-------------------------------------------------|
|
|  S  S  S  S  S  S  S  S  S  S  S  S  S  S  S  S
|-------------------------------------------------|
|-------10-15-13-11-10-11-13-11-13----13----13----|
|-10-12----------------------------14----14----14-|
|-------------------------------------------------|
|-------------------------------------------------|
|-------------------------------------------------|
|
|  S  S  S  S  S  S  S  S  S  S  S  S  S  S  S  S
|-------------------------------------------------|
|-------------------------------------------------|
|-------------------------------------------------|
|--1--1--1--1--1--1--1--1--3--3--3--3--3--3--3--3-|
|-------------------------------------------------|
|-------------------------------------------------|


    Gm                 F           Gm                    F
    Gtr I
    h    s  s  s  s  s  +s   E      +S  h     s  s  s  s  +s   E
||---------10-10-10-10-(10)--8--||--(8)------10-10-10-10-(10)--8-|
||o----------------------------o||-------------------------------|
||---------12-12-12-12-(12)-10--||-(10)------12-12-12-12-(12)-10-|
||---------12-12-12-12-(12)-10--||-(10)------12-12-12-12-(12)-10-|
||o--------10-10-10-10-(10)--8-o||--(8)------10-10-10-10-(10)--8-|
||------------------------------||-------------------------------|
|
|   Gtr II
|   W                                W
||------------------------------||-------------------------------|
||o----------------------------o||-------------------------------|
||------------------------------||-------------------------------|
||------------------------------||-------------------------------|
||o----------------------------o||-------------------------------|
||------------------------------||-------------------------------|
|
|   Gtr III
|   H    S  S  S  S  S  +S   E      +S  H     S  S  S  S  +S   E
||------------------------------||-------------------------------|
||o----------------------------o||-------------------------------|
||------------------------------||-------------------------------|
||----------5--5--5--5--(5)--3--||--(3)-------5--5--5--5--(5)--3-|
||o---------5--5--5--5--(5)--3-o||--(3)-------5--5--5--5--(5)--3-|
||----------3--3--3--3--(3)--1--||--(1)-------3--3--3--3--(3)--1-|


  Eb                 F
   E.  S  S  S  S  S  S  S  S  S  S  S  S  S
|-23--22-20----------20----20----20----20------||
|-----------23-22-23----23----22----20----18---||
|-20--19-17----------17----17----17----17------||
|-----------20-19-20----20----19----17----15---||
|----------------------------------------------||
|----------------------------------------------||
|
|  E.  S  S  S  S  S  S  S  S  S  S  S  S  S
|----------------------------------------------||
|----------------------------------------------||
|--8---7---------------------------------------||
|--------10--8--7--8-10--8-10--7-10----10------||
|-----------------------------------10-----8---||
|----------------------------------------------||
|
|  H                  H
|----------------------------------------------||
|----------------------------------------------||
|--3-------------------------------------------||
|--3------------------3------------------------||
|--1------------------3------------------------||
|---------------------1------------------------||


 Main Melody
  Gm                     F                Bb    F             Gm
   W                      W                H     Q.    S  S    W
|-10-------------------|--8-------------|-10-----8----10-11-|-10----|
|-11-------------------|-10-------------|-11----10----11-13-|-11----|
|-12-------------------|-10-------------|-10----10----10-10-|-12----|
|----------------------|----------------|-------------------|-------|
|----------------------|----------------|-------------------|-------|
|----------------------|----------------|-------------------|-------|
|
| Gtr II
|             ~~              ~~~~~~~~~~~~~~~~~~~~~~           ~~
|  E.    E. E Q.    E     Q   H.           H     Q.    S  S    W
|----------------------|----------------|-10-----8----10-11-|-10----|
|-10b11-10--8------11--|-10--11b13------|-11----10----11-13-|-11----|
|-------------7--------|----------------|-------------------|-------|
|----------------------|----------------|-------------------|-------|
|----------------------|----------------|-------------------|-------|
|----------------------|----------------|-------------------|-------|
|
| Gtr III
|  W                      W                H     H             W
|----------------------|----------------|-------------------|-------|
|----------------------|----------------|-------------------|-------|
|----------------------|----------------|--3----------------|-------|
|--5-------------------|--3-------------|--3-----3----------|--5----|
|--5-------------------|--3-------------|--1-----3----------|--5----|
|--3-------------------|--1-------------|--------1----------|--3----|


  Gm                     F                Bb         D         Gm
   W                      W                E.  E.  E  Q   Q     W
|-10-------------------|--8-------------|-10---8---6--5------|-10----||
|-11-------------------|-10-------------|-11--10---8--6---6--|-11----||
|-12-------------------|-10-------------|-10--10---7--7---7--|-12----||
|----------------------|----------------|-----------------7--|-------||
|----------------------|----------------|--------------------|-------||
|----------------------|----------------|--------------------|-------||
|
|             ~~              ~~~~~                             ~~
|  E.    E. E Q.    E     Q   H.           E.  E.  E  Q   Q     W
|----------------------|----------------|-10---8-------------|-------||
|-10b11-10--8------11--|-10--11b13------|-11--10--11-10------|-------||
|-------------7--------|----------------|---------12-10--10--|-12----||
|----------------------|----------------|----------------12--|-------||
|----------------------|----------------|--------------------|-------||
|----------------------|----------------|--------------------|-------||
|
|  W                      W                H          H         W
|----------------------|----------------|--------------------|-------||
|----------------------|----------------|--------------------|-------||
|----------------------|----------------|--3----------7------|-------||
|--5-------------------|--3-------------|--3----------7------|--5----||
|--5-------------------|--3-------------|--1----------5------|--5----||
|--3-------------------|--1-------------|--------------------|--3----||


 Verse
  G#    Gm      Eb         Bb    F           Gm
   H     H      W           H     H           W
|-11----10----|-6--------|-13-----8--------|-10----|
|-13----11----|-8--------|-15----10--------|-11----|
|-13----12----|-8--------|-15----10--------|-12----|
|-------------|----------|-15--------------|-------|
|-------------|----------|-----------------|-------|
|-------------|----------|-----------------|-------|
|
| Gtr III
|  H     H      W           H     E. E. E     W
|-------------|----------|-----------------|-------|
|-------------|----------|-----------------|-------|
|-------------|-8--------|--3-----5--5--5--|-------|
|--6-----5----|-8--------|--3-----3--3--3--|--5----|
|--6-----5----|-6--------|--1-----3--3--3--|--5----|
|--4-----3----|----------|-----------------|--3----|


  G#    Gm      Eb   F       Gm
   H     H      H     H       W
|-11----10----|-6-----8----|-10-------------------------------|
|-13----11----|-8----10----|-11-------------------------------|
|-13----12----|-8----10----|-12-------------------------------|
|-------------|------------|----------------------------------|
|-------------|------------|----------------------------------|
|-------------|------------|----------------------------------|
|
|                             PM--------------------|
|  H     H      H     H       S S S S S S S S S S S S S S S S
|-------------|------------|----------------------------------|
|-------------|------------|----------------------------------|
|-------------|-8----------|----------------------------------|
|--6-----5----|-8-----3----|--------------------------5-------|
|--6-----5----|-6-----3----|----------------------------8-6-5-|
|--4-----3----|-------1----|--3-3-3-3-3-3-3-3-3-3-3-3---------|


  C
   W
|-20-----------------------------|
|-20-----------------------------|
|-20-----------------------------|
|--------------------------------|
|--------------------------------|
|--------------------------------|
|
|    PM------------------------|
|  E S S S S S S S S S S S S S S
|--------------------------------|
|--------------------------------|
|--5-----------------------------|
|--5-----------------------------|
|--3-3-3-3-3-3-3-3-3-3-3-3-3-3-3-|
|--------------------------------|


  Bb                            Eb          Bb
   W                             H           H
|-18--------------------------|-23----------18-----------|
|-18--------------------------|-23----------18-----------|
|-19--------------------------|-24----------19-----------|
|-----------------------------|--------------------------|
|-----------------------------|--------------------------|
|-----------------------------|--------------------------|
|
|    PM--------|
|  E S S S S S S E. S S S S S    E S S +Q    E S S +Q
|-----------------------------|--------------------------|
|-----------------------------|--------------------------|
|--3-------------3------------|--8---8-(8)---3---3-(3)---|
|--3-------------3----3-1-0---|--8---8-(8)---3---3-(3)---|
|--1-1-1-1-1-1-1-1--1-------1-|--6---6-(6)---1---1-(1)---|
|-----------------------------|--------------------------|


  C                         C
   W                         W
|-20----------------------|-20-----------------------------|
|-20----------------------|-20-----------------------------|
|-20----------------------|-20-----------------------------|
|-------------------------|--------------------------------|
|-------------------------|--------------------------------|
|-------------------------|--------------------------------|
|
|         PM------------|      PM------------------------|
|  E Q  E S S S S S S S S    E S S S S S S S S S S S S S S
|-------------------------|--------------------------------|
|-------------------------|--------------------------------|
|--5----5-----------------|--5-----------------------------|
|--5----5-----------------|--5-----------------------------|
|--3----3-3-3-3-3-3-3-3-3-|--3-3-3-3-3-3-3-3-3-3-3-3-3-3-3-|
|-------------------------|--------------------------------|


  Bb
   W
|-18--------------------------|
|-18--------------------------|
|-19--------------------------|
|-----------------------------|
|-----------------------------|
|-----------------------------|
|
|    PM--------|
|  E S S S S S S E. S S S S S
|-----------------------------|
|-----------------------------|
|--3-------------3------------|
|--3-------------3----3-1-0---|
|--1-1-1-1-1-1-1-1--1-------1-|
|-----------------------------|


  Eb          Gm            C
   H           H             W
|-23----------15----------|-20--------------------||
|-23----------15----------|-20--------------------||
|-24----------15----------|-20--------------------||
|-------------------------|-----------------------||
|-------------------------|-----------------------||
|-------------------------|-----------------------||
|
|  E S S +Q    E S S +Q      E S S +H     S S S S
|-------------------------|-----------------------||
|-------------------------|-----------------------||
|--8---8-(8)--------------|--5---5-(5)------------||
|--8---8-(8)---5---5-(5)--|--5---5-(5)----3-1-0---||
|--6---6-(6)---5---5-(5)--|--3---3-(3)----------1-||
|--------------3---3-(3)--|-----------------------||


 Main Melody
  Gm                     F                Bb    F             Gm
   W                      W                H     Q.    S  S    W
|-10-------------------|--8-------------|-10-----8----10-11-|-10----|
|-11-------------------|-10-------------|-11----10----11-13-|-11----|
|-12-------------------|-10-------------|-10----10----10-10-|-12----|
|----------------------|----------------|-------------------|-------|
|----------------------|----------------|-------------------|-------|
|----------------------|----------------|-------------------|-------|
|
| Gtr II
|             ~~              ~~~~~~~~~~~~~~~~~~~~~~           ~~
|  E.    E. E Q.    E     Q   H.           H     Q.    S  S    W
|----------------------|----------------|-10-----8----10-11-|-10----|
|-10b11-10--8------11--|-10--11b13------|-11----10----11-13-|-11----|
|-------------7--------|----------------|-------------------|-------|
|----------------------|----------------|-------------------|-------|
|----------------------|----------------|-------------------|-------|
|----------------------|----------------|-------------------|-------|
|
| Gtr III
|  W                      W                H     H             W
|----------------------|----------------|-------------------|-------|
|----------------------|----------------|-------------------|-------|
|----------------------|----------------|--3----------------|-------|
|--5-------------------|--3-------------|--3-----3----------|--5----|
|--5-------------------|--3-------------|--1-----3----------|--5----|
|--3-------------------|--1-------------|--------1----------|--3----|


  Gm                     F                Bb         D         Gm
   W                      W                E.  E.  E  Q   Q     W
|-10-------------------|--8-------------|-10---8---6--5------|-10----||
|-11-------------------|-10-------------|-11--10---8--6---6--|-11----||
|-12-------------------|-10-------------|-10--10---7--7---7--|-12----||
|----------------------|----------------|-----------------7--|-------||
|----------------------|----------------|--------------------|-------||
|----------------------|----------------|--------------------|-------||
|
|             ~~              ~~~~~                             ~~
|  E.    E. E Q.    E     Q   H.           E.  E.  E  Q   Q     W
|----------------------|----------------|-10---8-------------|-------||
|-10b11-10--8------11--|-10--11b13------|-11--10--11-10------|-------||
|-------------7--------|----------------|---------12-10--10--|-12----||
|----------------------|----------------|----------------12--|-------||
|----------------------|----------------|--------------------|-------||
|----------------------|----------------|--------------------|-------||
|
|  W                      W                H          H         W
|----------------------|----------------|--------------------|-------||
|----------------------|----------------|--------------------|-------||
|----------------------|----------------|--3----------7------|-------||
|--5-------------------|--3-------------|--3----------7------|--5----||
|--5-------------------|--3-------------|--1----------5------|--5----||
|--3-------------------|--1-------------|--------------------|--3----||


 Verse
  G#    Gm      Eb         Bb    F           Gm
   H     H      W           H     H           W
|-11----10----|-6--------|-13-----8--------|-10----|
|-13----11----|-8--------|-15----10--------|-11----|
|-13----12----|-8--------|-15----10--------|-12----|
|-------------|----------|-15--------------|-------|
|-------------|----------|-----------------|-------|
|-------------|----------|-----------------|-------|
|
| Gtr III
|  H     H      W           H     E. E. E     W
|-------------|----------|-----------------|-------|
|-------------|----------|-----------------|-------|
|-------------|-8--------|--3-----5--5--5--|-------|
|--6-----5----|-8--------|--3-----3--3--3--|--5----|
|--6-----5----|-6--------|--1-----3--3--3--|--5----|
|--4-----3----|----------|-----------------|--3----|


  G#    Gm      Eb   F       Gm
   H     H      H     H       W
|-11----10----|-6-----8----|-10-------------------------------|
|-13----11----|-8----10----|-11-------------------------------|
|-13----12----|-8----10----|-12-------------------------------|
|-------------|------------|----------------------------------|
|-------------|------------|----------------------------------|
|-------------|------------|----------------------------------|
|
|                             PM--------------------|
|  H     H      H     H       S S S S S S S S S S S S S S S S
|-------------|------------|----------------------------------|
|-------------|------------|----------------------------------|
|-------------|-8----------|----------------------------------|
|--6-----5----|-8-----3----|--------------------------5-------|
|--6-----5----|-6-----3----|----------------------------8-6-5-|
|--4-----3----|-------1----|--3-3-3-3-3-3-3-3-3-3-3-3---------|


  C
   W
|-20-----------------------------|
|-20-----------------------------|
|-20-----------------------------|
|--------------------------------|
|--------------------------------|
|--------------------------------|
|
|    PM------------------------|
|  E S S S S S S S S S S S S S S
|--------------------------------|
|--------------------------------|
|--5-----------------------------|
|--5-----------------------------|
|--3-3-3-3-3-3-3-3-3-3-3-3-3-3-3-|
|--------------------------------|


  Bb
   W
|-18--------------------------|
|-18--------------------------|
|-19--------------------------|
|-----------------------------|
|-----------------------------|
|-----------------------------|
|
|    PM--------|
|  E S S S S S S E. S S S S S
|-----------------------------|
|-----------------------------|
|--3-------------3------------|
|--3-------------3----3-1-0---|
|--1-1-1-1-1-1-1-1--1-------1-|
|-----------------------------|


  Eb          Bb            C
   H           H             W
|-23----------18----------|-20--------------------------|
|-23----------18----------|-20--------------------------|
|-24----------19----------|-20--------------------------|
|-------------------------|-----------------------------|
|-------------------------|-----------------------------|
|-------------------------|-----------------------------|
|
|                                       PM------------|
|  E S S +Q    E S S +Q      E S S +Q   S S S S S S S S
|-------------------------|-----------------------------|
|-------------------------|-----------------------------|
|--8---8-(8)---3---3-(3)--|--5---5-(5)------------------|
|--8---8-(8)---3---3-(3)--|--5---5-(5)------------------|
|--6---6-(6)---1---1-(1)--|--3---3-(3)--3-3-3-3-3-3-3-3-|
|-------------------------|-----------------------------|


  C                                Bb
   W                                W
|-20-----------------------------|-18--------------------------|
|-20-----------------------------|-18--------------------------|
|-20-----------------------------|-19--------------------------|
|--------------------------------|-----------------------------|
|--------------------------------|-----------------------------|
|--------------------------------|-----------------------------|
|
|    PM------------------------|      PM--------|
|  E S S S S S S S S S S S S S S    E S S S S S S E. S S S S S
|--------------------------------|-----------------------------|
|--------------------------------|-----------------------------|
|--5-----------------------------|--3-------------3------------|
|--5-----------------------------|--3-------------3----3-1-0---|
|--3-3-3-3-3-3-3-3-3-3-3-3-3-3-3-|--1-1-1-1-1-1-1-1--1-------1-|
|--------------------------------|-----------------------------|


  Eb          Gm            C
   H           H             W
|-23----------15----------|-20----------------------||
|-23----------15----------|-20----------------------||
|-24----------15----------|-20----------------------||
|-------------------------|-------------------------||
|-------------------------|-------------------------||
|-------------------------|-------------------------||
|
|  E S S +Q    E S S +Q      E S S +H     S S S S
|-------------------------|-------------------------||
|-------------------------|-------------------------||
|--8---8-(8)--------------|--5---5-(5)--------------||
|--8---8-(8)---5---5-(5)--|--5---5-(5)----3-1-0-----||
|--6---6-(6)---5---5-(5)--|--3---3-(3)----------1---||
|--------------3---3-(3)--|-------------------------||


 Main Melody
  Gm                     F                Bb    F                 Gm
   W                      W                H     Q.        S  S    W
|-10-------------------|--8-------------|-10-----8--------10-11-|-10----|
|-11-------------------|-10-------------|-11----10--------11-13-|-11----|
|-12-------------------|-10-------------|-10----10--------10-10-|-12----|
|----------------------|----------------|-----------------------|-------|
|----------------------|----------------|-----------------------|-------|
|----------------------|----------------|-----------------------|-------|
|
| Gtr II
|             ~~              ~~~~~~~~~~~~~~~                      ~~
|  E.    E. E Q.    E     Q   H.           H     E.    E.  E       W
|----------------------|----------------|-10----11b13-11--10----|-------|
|-10b11-10--8------11--|-10--11b13------|-11----13b15-13--11----|--8----|
|-------------7--------|----------------|-----------------------|-------|
|----------------------|----------------|-----------------------|-------|
|----------------------|----------------|-----------------------|-------|
|----------------------|----------------|-----------------------|-------|
|
| Gtr III
|  W                      W                H     H                 W
|----------------------|----------------|-----------------------|-------|
|----------------------|----------------|-----------------------|-------|
|----------------------|----------------|--3--------------------|-------|
|--5-------------------|--3-------------|--3-----3--------------|--5----|
|--5-------------------|--3-------------|--1-----3--------------|--5----|
|--3-------------------|--1-------------|--------1--------------|--3----|


  Gm                     F                Bb         D
   W                      W                E.  E.  E  Q   Q
|-10-------------------|--8-------------|-10---8---6--5------||
|-11-------------------|-10-------------|-11--10---8--6---6--||
|-12-------------------|-10-------------|-10--10---7--7---7--||
|----------------------|----------------|-----------------7--||
|----------------------|----------------|--------------------||
|----------------------|----------------|--------------------||
|
|             ~~              ~~~~~
|  E.    E. E Q.    E     Q   H.           E.  E.  E  Q   Q
|----------------------|----------------|-10---8-------------||
|-10b11-10--8------11--|-10--11b13------|-11--10--11-10------||
|-------------7--------|----------------|---------12-10--10--||
|----------------------|----------------|----------------12--||
|----------------------|----------------|--------------------||
|----------------------|----------------|--------------------||
|
|  W                      W                H          H
|----------------------|----------------|--------------------||
|----------------------|----------------|--------------------||
|----------------------|----------------|--3----------7------||
|--5-------------------|--3-------------|--3----------7------||
|--5-------------------|--3-------------|--1----------5------||
|--3-------------------|--1-------------|--------------------||


 Bridge - Counter Verse
  Gm                                 Gm                   C#
   E  S  S  E  S  S  E  E  S  S  E    E  S  S  E  E  E  E  Q
|----------10-------10-11-10-------|-10-------10----10-11-13--|
|----11-13-11-13-11-11-13-11-13-11-|-11-13-11-11-11-11-13-15--|
|----12-14----14-12----------14-12-|----14-12----12-----------|
|----------------------------------|--------------------------|
|----------------------------------|--------------------------|
|----------------------------------|--------------------------|
|
|  ~~
|  W                                  W
|----------------------------------|--------------------------|
|----------------------------------|--------------------------|
|-12-------------------------------|--------------------------|
|----------------------------------|--------------------------|
|----------------------------------|--------------------------|
|----------------------------------|--------------------------|
|
|  Q        Q        H                Q        Q     Q     Q
|----------------------------------|--------------------------|
|----------------------------------|--------------------------|
|----------------------------------|-----------------------6--|
|--5-------------------------------|--5--------------------6--|
|--5-------------------------------|--5--------------------4--|
|--3-------------------------------|--3-----------------------|


  Gm
  E  S  S  E  S  S  E  E  S  S  E
|---------10-------10-11-10-------|
|---11-13-11-13-11-11-13-11-13-11-|
|---12-14----14-12----------14-12-|
|---------------------------------|
|---------------------------------|
|---------------------------------|
|
| Gtr III
| Q        Q        H
|---------------------------------|
|---------------------------------|
|---------------------------------|
|-5-------------------------------|
|-5-------------------------------|
|-3-------------------------------|


  Gm                   E     Gm
   E  S  S  E  E  E  E  Q     E  E    E  S  S  E  E    E  E
|-10-------10----10-11-15--|----------------------------------|
|-11-13-11-11-11-11-13-15--|-15-16---18-15-16-18-16---15------|
|----14-12----12-----------|-12-13---15-12-13-15-13---12-17---|
|--------------------------|-----------------------------15---|
|--------------------------|----------------------------------|
|--------------------------|----------------------------------|
|
|                                PM-------------------------|
|  Q        Q     Q     Q     E  S S  E  S  S  E  S S  E  S S
|--------------------------|----------------------------------|
|--------------------------|----------------------------------|
|--------------------------|----------------------------------|
|--5--------------------2--|--5-------------------------------|
|--5--------------------2--|--5-------------------------------|
|--3--------------------0--|--3--3-3--3--3--3--3--3-3--3--3-3-|


  Gm                            F
   S  S  S  S  E  E    Q      Q
|---------------------------------|
|-15-16-15-13-15-13---15----------|
|-12-13-12-10-12-10---12-----12---|
|----------------------------10---|
|---------------------------------|
|---------------------------------|
|
|  PM------------------------|
|  E     S  S  E  S S  E S S  E E
|---------------------------------|
|---------------------------------|
|---------------------------------|
|-------------------------------3-|
|-------------------------------3-|
|--3-----3--3--3--3-3--3-3-3--3-1-|


  Gm
   E  E  E  S  S  E  E  E  E    S  S  S  S  E  E  H
|----------------------------|-------------------------||
|-15-16-18-15-16-18-16-15----|-15-16-15-13-15-13-15----||
|-12-13-15-12-13-15-13-12-17-|-12-13-12-10-12-10-12----||
|-------------------------15-|-------------------------||
|----------------------------|-------------------------||
|----------------------------|-------------------------||
|
|  Q     Q        H             W
|----------------------------|-------------------------||
|----------------------------|-------------------------||
|----------------------------|-------------------------||
|--5-------------------------|-------------------------||
|--5-------------------------|-------------------------||
|--3-------------------------|-------------------------||


 Bridge - Counter Chorus
  Em                                                    A    D
  S S S S S S S S S S S S S S S S   S S S S S S S S S S  Q   S S
|---------------------------------|------------------------------|
|-8-8-8---8---8-8-8---8-8-8-7-7---|-8-8-8---8---8-8-8---10---7---|
|-9-9-9---9---9-9-9---9-9-9-7-7---|-9-9-9---9---9-9-9---11---7---|
|---------------------------------|------------------------------|
|-7-7-7---7---7-7-7---7-7-7-7-7---|-7-7-7---7---7-7-7----7---7---|
|---------------------------------|------------------------------|
|
| PM------------------------------------------------|
| S S S S S S S S S S S S S S S S   S S S S S S S S S S  E E E
|---------------------------------|------------------------------|
|---------------------------------|------------------------------|
|---------------------------------|----------------------2---7---|
|---------------------------------|----------------------2---7---|
|---------------------------------|----------------------0---5---|
|-0-0-0---0---0-0-0---0-0-0-0-0---|-0-0-0---0---0-0-0------------|


  Em                                                    A   D
  S S S S S S S S S S S S S S S S   S S S S S S S S S S  Q  S S
|---------------------------------|-----------------------------||
|-8-8-8---8---8-8-8---8-8-8-7-7---|-8-8-8---8---8-8-8---10--7---||
|-9-9-9---9---9-9-9---9-9-9-7-7---|-9-9-9---9---9-9-9---11--7---||
|---------------------------------|-----------------------------||
|-7-7-7---7---7-7-7---7-7-7-7-7---|-7-7-7---7---7-7-7----7--7---||
|---------------------------------|-----------------------------||
|
| PM----------------------------------------------|
| S S S S S S S S S S S S S S S S   S S S S S S S S H
|---------------------------------|-----------------------------||
|---------------------------------|-----------------------------||
|---------------------------------|-----------------------------||
|---------------------------------|-----------------------------||
|---------------------------------|-----------------------------||
|-0-0-0---0---0-0-0---0-0-0-0-0---|-0-0-0---0---0-0-0-----------||


 Bridge - Keyboard Break
  Am          F           Am          F
   W           W           W           W
|--8--------|--8--------|--8--------|--8----||
|-10--------|-10--------|-10--------|-10----||
|--9--------|-10--------|--9--------|-10----||
|-----------|-----------|-----------|-------||
|-----------|-----------|-----------|-------||
|-----------|-----------|-----------|-------||
|
|  W           W           W           W
|-----------|-----------|-----------|-------||
|-----------|-----------|-----------|-------||
|--2--------|-----------|--2--------|-------||
|--2--------|--3--------|--2--------|--3----||
|--0--------|--3--------|--0--------|--3----||
|-----------|--1--------|-----------|--1----||


 Bridge - Counter Verse
  Gm
   E  E    E  S  S  E  E    E  E
|----------------------------------|
|-15-16---18-15-16-18-16---15------|
|-12-13---15-12-13-15-13---12-17---|
|-----------------------------15---|
|----------------------------------|
|----------------------------------|
|
|     PM----------------------------
|  E  S S  E  S  S  E  S S  E  S S
|----------------------------------|
|----------------------------------|
|----------------------------------|
|--5-------------------------------|
|--5-------------------------------|
|--3--3-3--3--3--3--3--3-3--3--3-3-|


                                F   Gm
   S  S  S  S  E  E    Q      Q      E  E    E  S  S  E  E    E  E
|---------------------------------|----------------------------------|
|-15-16-15----15------15----------|-15-16---18-15-16-18-16---15------|
|-12-13-12-17-12-17---12-----12---|-12-13---15-12-13-15-13---12-17---|
|----------15----15----------10---|-----------------------------15---|
|---------------------------------|----------------------------------|
|---------------------------------|----------------------------------|
|
|----------------------------|          PM-------------------------|
|  E     S  S  E  S S  E S S  E E    E  S S  E  S  S  E  S S  E  S S
|---------------------------------|----------------------------------|
|---------------------------------|----------------------------------|
|---------------------------------|----------------------------------|
|-------------------------------3-|--5-------------------------------|
|-------------------------------3-|--5-------------------------------|
|--3-----3--3--3--3-3--3-3-3--3-1-|--3--3-3--3--3--3--3--3-3--3--3-3-|


  Gm                  Bb  C     Gm
   S  S  S  S  E  E    Q   Q     E  E    E  S  S  E  E    E  E
|-----------------------------|----------------------------------|
|-15-16-15----15------15------|-15-16---18-15-16-18-16---15------|
|-12-13-12-17-12-17---12--12--|-12-13---15-12-13-15-13---12-17---|
|----------15----15-------10--|-----------------------------15---|
|-----------------------------|----------------------------------|
|-----------------------------|----------------------------------|
|
|  PM---------------|               PM----------------------------
|  E     S  S  E  S S  Q   Q     E  S S  E  S  S  E  S S  E  S S
|-----------------------------|----------------------------------|
|-----------------------------|----------------------------------|
|----------------------3---5--|----------------------------------|
|----------------------3---5--|--5-------------------------------|
|----------------------1---3--|--5-------------------------------|
|--3-----3--3--3--3-3---------|--3--3-3--3--3--3--3--3-3--3--3-3-|


                                F
   S  S  S  S  E  E    Q      Q
|----------------------------------|
|-15-16-15----15------15-----------|
|-12-13-12-17-12-17---12-----12----|
|----------15----15----------10----|
|----------------------------------|
|----------------------------------|
|
|----------------------------|
|  E     S  S  E  S S  E S S  E E
|----------------------------------|
|----------------------------------|
|----------------------------------|
|-------------------------------3--|
|-------------------------------3--|
|--3-----3--3--3--3-3--3-3-3--3-1--|


  Gm
   E  E  E  S  S  E  E  E  E    S  S  S  S  E  E  H
|----------------------------|-------------------------||
|-15-16-18-15-16-18-16-15----|-15-16-15----15----15----||
|-12-13-15-12-13-15-13-12-17-|-12-13-12-17-12-17-12----||
|-------------------------15-|----------15----15-------||
|----------------------------|-------------------------||
|----------------------------|-------------------------||
|
|  Q     Q        H             W
|----------------------------|-------------------------||
|----------------------------|-------------------------||
|----------------------------|-------------------------||
|--5-------------------------|--5----------------------||
|--5-------------------------|--5----------------------||
|--3-------------------------|--3----------------------||


 Bridge - Counter Chorus
  Em
  S S S S S S S S S S S S S S S S
|----------------------------------|
|-8-8-8---8---8-8-8---8-8-8-7-7----|
|-9-9-9---9---9-9-9---9-9-9-7-7----|
|----------------------------------|
|-7-7-7---7---7-7-7---7-7-7-7-7----|
|----------------------------------|
|
| PM----------------------------|
| S S S S S S S S S S S S S S S S
|----------------------------------|
|----------------------------------|
|----------------------------------|
|----------------------------------|
|----------------------------------|
|-0-0-0---0---0-0-0---0-0-0-0-0----|


                      A    D     Em
  S S S S S S S S S S  Q   S S   S S S S S S S S S S S S S S S S
|------------------------------|---------------------------------|
|-8-8-8---8---8-8-8---10---7---|-8-8-8---8---8-8-8---8-8-8-7-7---|
|-9-9-9---9---9-9-9---11---7---|-9-9-9---9---9-9-9---9-9-9-7-7---|
|------------------------------|---------------------------------|
|-7-7-7---7---7-7-7----7---7---|-7-7-7---7---7-7-7---7-7-7-7-7---|
|------------------------------|---------------------------------|
|
| PM--------------|              PM--------------------------|
| S S S S S S S S S S  E E E     S S S S S S S S S S S S S S S S
|------------------------------|---------------------------------|
|------------------------------|---------------------------------|
|----------------------2---7---|---------------------------------|
|----------------------2---7---|---------------------------------|
|----------------------0---5---|---------------------------------|
|-0-0-0---0---0-0-0------------|-0-0-0---0---0-0-0---0-0-0-0-0---|


                      A        D
  S S S S S S S S S S  Q        S S
|-----------------------------------||
|-8-8-8---8---8-8-8---10--------7---||
|-9-9-9---9---9-9-9---11--------7---||
|-----------------------------------||
|-7-7-7---7---7-7-7----7--------7---||
|-----------------------------------||
|
| Gtr II
| H               S S  S S S S  S S
|---------------------------------7-||
|--------------------------7-8-10---||
|------------------------9----------||
|-----------------9-x--x------------||
|-----------------------------------||
|-----------------------------------||
|
| Gtr III
| PM------------|
| S S S S S S S S H
|-----------------------------------||
|-----------------------------------||
|-----------------------------------||
|-----------------------------------||
|-----------------------------------||
|-0-0-0---0---0-0-0-----------------||


 Bridge - Guitar Break
  Am                       F
   W                        W
|--8---------------------|--8-------------------|
|-10---------------------|-10-------------------|
|--9---------------------|-10-------------------|
|------------------------|----------------------|
|------------------------|----------------------|
|------------------------|----------------------|
|
|         |--3--|                  |-3--|
|  E. E.  S  S  S Q   Q     E.  E. S  S S  H
|--8--7------------------|----------------------|
|--------10-12-10----10--|----------------------|
|-----------------9------|-12--10--9-10-9-------|
|------------------------|----------------10----|
|------------------------|----------------------|
|------------------------|----------------------|
|
|  W                        W
|------------------------|----------------------|
|------------------------|----------------------|
|--2---------------------|----------------------|
|--2---------------------|--3-------------------|
|--0---------------------|--3-------------------|
|------------------------|--1-------------------|


  Am
   W
|--8---------------------------------------|
|-10---------------------------------------|
|--9---------------------------------------|
|------------------------------------------|
|------------------------------------------|
|------------------------------------------|
|
|  S S S  S S S  S S S  S S  S  S  S  S  S
|------------------------------------10-12-|
|-------------------------8-10-12-13-------|
|------------------7-9-10------------------|
|-10-9-7----7-9-10-------------------------|
|--------11--------------------------------|
|------------------------------------------|
|
|  W
|------------------------------------------|
|------------------------------------------|
|--2---------------------------------------|
|--2---------------------------------------|
|--0---------------------------------------|
|------------------------------------------|


                            Breakdown
  F                          Gm          Bb
    W                        E S  S  Q   E  S  S  Q
|---8---------------------||---------------------------|
|--10---------------------||---8-10-11-----11-13-15----|
|--10---------------------||---------------------------|
|-------------------------||---5--7--8------8-10-12----|
|-------------------------||---------------------------|
|-------------------------||---------------------------|
|
|                    ~~
|           |--3--|
|   E.  E.  S  S  S  H       W
|-/15--13--12-13-12-------||---------------------------|
|-------------------13----||---------------------------|
|-------------------------||---------------------------|
|-------------------------||---------------------------|
|-------------------------||---------------------------|
|-------------------------||---------------------------|
|
|   W                        Q       E E Q        E E
|-------------------------||---------------------------|
|-------------------------||---------------------------|
|-------------------------||-------------3----------3--|
|---3---------------------||-5---------5-3----------3--|
|---3---------------------||-5---------5-1----------1--|
|---1---------------------||-3---------3---------------|


  F            C              Gm          Bb             Eb     F       Gm
  E  S  S  Q   E  S  S  Q     E S  S  Q   E  S  S  Q     S S  E  S S  E H
|----------------11-13-15---|--------------------------|---------------------|
|---10-11-13----------------|---8-10-11-----11-13-15---|-8---11-10-8----8----|
|-----------------8-10-12---|--------------------------|-------------10------|
|----7--8-10----------------|---5--7--8------8-10-12---|-5----8--7-5----5----|
|---------------------------|--------------------------|--------------8------|
|---------------------------|--------------------------|---------------------|
|
| Gtr III
| Q        E E Q        E E   Q       E E Q        E E   Q       Q      H
|---------------------------|--------------------------|---------------------|
|---------------------------|--------------------------|---------------------|
|--------------5----------5-|-------------3----------3-|-8-------------------|
|-3----------3-5----------5-|-5---------5-3----------3-|-8-------3------5----|
|-3----------3-3----------3-|-5---------5-1----------1-|-6-------3------5----|
|-1----------1--------------|-3---------3--------------|---------1------3----|


  Gm          Bb             F            C
  E S  S  Q   E  S  S  Q     E  S  S  Q   E  S  S  Q
|--------------------------|----------------11-13-15---|
|---8-10-11-----11-13-15---|---10-11-13----------------|
|--------------------------|-----------------8-10-12---|
|---5--7--8------8-10-12---|----7--8-10----------------|
|--------------------------|---------------------------|
|--------------------------|---------------------------|
|
| Q       E E Q        E E   Q        E E Q        E E
|--------------------------|---------------------------|
|--------------------------|---------------------------|
|-------------3----------3-|--------------5----------5-|
|-5---------5-3----------3-|-3----------3-5----------5-|
|-5---------5-1----------1-|-3----------3-3----------3-|
|-3---------3--------------|-1----------1--------------|


  Gm          Bb
  E S  S  Q   E  S  S  Q
|---------------------------|
|---8-10-11-----11-13-15----|
|---------------------------|
|---5--7--8------8-10-12----|
|---------------------------|
|---------------------------|
|
| Q       E E Q        E E
|---------------------------|
|---------------------------|
|-------------3----------3--|
|-5---------5-3----------3--|
|-5---------5-1----------1--|
|-3---------3---------------|


  Eb     F       Gm
  S S  E  S S  E H      +W           +W            +W
|---------------------|------------|-------------|-------------|
|-8---11-10-8----8----|-(8)--------|-(8)---------|-(8)---------|
|-------------10------|------------|-------------|-------------|
|-5----8--7-5----5----|-(5)--------|-(5)---------|-(5)---------|
|--------------8------|------------|-------------|-------------|
|---------------------|------------|-------------|-------------|
|
| Gtr II
| H              H      +W            H     H      +H     H
|---------------------|------------|-------------|-------------|
|---------------------|------------|-------------|-------------|
|---------------------|------------|-------------|-------------|
|----------------3----|-(3)--------|--3----------|-------------|
|---------------------|------------|--------5----|-(5)---------|
|---------------------|------------|-------------|--------6----|
|
| Gtr III
| Q       Q      H      +W           +W            +W
|---------------------|------------|-------------|-------------|
|-4-------------------|------------|-------------|-------------|
|-3-------------------|------------|-------------|-------------|
|-1-------3------5----|-(5)--------|-(5)---------|-(5)---------|
|---------3------5----|-(5)--------|-(5)---------|-(5)---------|
|---------1------3----|-(3)--------|-(3)---------|-(3)---------|


   +W            +W
|-------------|---------||
|-------------|---------||
|-(12)--------|-(12)----||
|-------------|---------||
|-------------|---------||
|-(15)--------|-(15)----||
|
|   W            +W
|-------------|---------||
|-------------|---------||
|-------------|---------||
|-------------|---------||
|-------------|---------||
|---3---------|--(3)----||


 Flute Break
  Cm          Bb          Eb    Bb      Cm
   W           W           H     H       W
|-11--------|-10--------|-11----10----|-11----|
|-13--------|-11--------|-11----11----|-13----|
|-12--------|-10--------|-12----10----|-12----|
|-----------|-----------|-------------|-------|
|-----------|-----------|-------------|-------|
|-----------|-----------|-------------|-------|


  Cm          Bb          Eb    G       C
   W           W           H     H       W
|-11--------|-10--------|-11----10----|-11----||
|-13--------|-11--------|-11----11----|-13----||
|-12--------|-10--------|-12----12----|-12----||
|-----------|-----------|-------------|-------||
|-----------|-----------|-------------|-------||
|-----------|-----------|-------------|-------||
|
| Gtr III
|  W           W           H     H       W
|-----------|-----------|-------------|-------||
|-----------|-----------|-------------|-------||
|-----------|-----------|--8----------|--5----||
|-----------|-----------|--8-----5----|--5----||
|-----------|-----------|--6-----5----|--3----||
|-----------|-----------|--------3----|-------||


 Main Melody
  Gm                     F                Bb    F             Gm
   W                      W                H     Q.    S  S    W
|-10-------------------|--8-------------|-10-----8----10-11-|-10----|
|-11-------------------|-10-------------|-11----10----11-13-|-11----|
|-12-------------------|-10-------------|-10----10----10-10-|-12----|
|----------------------|----------------|-------------------|-------|
|----------------------|----------------|-------------------|-------|
|----------------------|----------------|-------------------|-------|
|
| Gtr II
|             ~~              ~~~~~~~~~~~~~~~~~~~~~~           ~~
|  E.    E. E Q.    E     Q   H.           H     Q.    S  S    W
|----------------------|----------------|-10-----8----10-11-|-10----|
|-10b11-10--8------11--|-10--11b13------|-11----10----11-13-|-11----|
|-------------7--------|----------------|-------------------|-------|
|----------------------|----------------|-------------------|-------|
|----------------------|----------------|-------------------|-------|
|----------------------|----------------|-------------------|-------|
|
| Gtr III
|  W                      W                H     H             W
|----------------------|----------------|-------------------|-------|
|----------------------|----------------|-------------------|-------|
|----------------------|----------------|--3----------------|-------|
|--5-------------------|--3-------------|--3-----3----------|--5----|
|--5-------------------|--3-------------|--1-----3----------|--5----|
|--3-------------------|--1-------------|--------1----------|--3----|


  Gm                     F                Bb         D         Gm
   W                      W                E.  E.  E  Q   Q     W
|-10-------------------|--8-------------|-10---8---6--5------|-10----------||
|-11-------------------|-10-------------|-11--10---8--6---6--|-11----------||
|-12-------------------|-10-------------|-10--10---7--7---7--|-12----------||
|----------------------|----------------|-----------------7--|-------------||
|----------------------|----------------|--------------------|-------------||
|----------------------|----------------|--------------------|-------------||
|
|             ~~              ~~~~~                             ~~
|  E.    E. E Q.    E     Q   H.           E.  E.  E  Q   Q     H     H
|----------------------|----------------|-10---8-------------|-------------||
|-10b11-10--8------11--|-10--11b13------|-11--10--11-10------|-------------||
|-------------7--------|----------------|---------12-10--10--|-12----------||
|----------------------|----------------|----------------12--|-------------||
|----------------------|----------------|--------------------|-------10----||
|----------------------|----------------|--------------------|-------------||
|
|  W                      W                H          H         W
|----------------------|----------------|--------------------|-------------||
|----------------------|----------------|--------------------|-------------||
|----------------------|----------------|--3----------7------|-------------||
|--5-------------------|--3-------------|--3----------7------|--5----------||
|--5-------------------|--3-------------|--1----------5------|--5----------||
|--3-------------------|--1-------------|--------------------|--3----------||


 Outro
  Gm                   G#                 D                 Gm
  Gtrs I, II
   S  S S  S  S S S  S S  S S S S S S S   S S S S  S S  S S  S S S  S S S  S S
|---------------------------------------|------------6------10-8-6----8-6------|
|-------------------------------7-8-7---|-----7-8-10---10-8--------10-----10-8-|
|---------------8-7---------7-8-------8-|-7-8----------------------------------|
|-------9-10-12-----10-9-10-------------|--------------------------------------|
|-10-11---------------------------------|--------------------------------------|
|---------------------------------------|--------------------------------------|
|
| Gtr III
|  S  S S  S  S S S  S S  S S S S S S S   S S S S  S S  S S  S S S  S S S  S S
|---------------------------------------|--------------------------------------|
|---------------------------------------|--------------------------------------|
|---------------------------------------|--------------------------------------|
|---------------------------------------|--------------------------------------|
|---------------------------------------|-5-5-5-5--5-5--5-5--------------------|
|--3--3-3--3--3-3-3--3-4--4-4-4-4-4-4-4-|--------------------3-3-3--3-3-3--3-3-|


  Eb                   F                   Gm
  Gtr I
  S  S S  S S  S  S  S  S S  S S S S S S    S  S  S  S S  S  S  S  S Q  E.
|------8-10-8----------------------------|---------------15-15-15-15--------*|
|-------------11-10-11----8----8---8---8-|----------------------------------*|
|-8-10----------------------10---8---7---|-12-12-12-12---12-12-12-12--------*|
|----------------------10----------------|----------------------------------*|
|----------------------------------------|-10-10-10-10---10-10-10-10--------*|
|----------------------------------------|----------------------------------*|
|
| Gtr II
| S  S S  S S  S  S  S  S S  S S S S S S    S  S  S  S S  S  S  S  S Q  E.
|------8-10-8----------------------------|----------------------------------*|
|-------------11-10-11----8----8---8---8-|----------------------------------*|
|-8-10----------------------10---8---7---|----------------------------------*|
|----------------------10----------------|----------------------------------*|
|----------------------------------------|-10-10-10-10---10-10-10-10--------*|
|----------------------------------------|-10-10-10-10---10-10-10-10--------*|
|
| Gtr III
| S  S S  S S  S  S  S  S S  S S S S S S    S  S  S  S S  S  S  S  S Q  E.
|----------------------------------------|----------------------------------*|
|----------------------------------------|----------------------------------*|
|----------------------------------------|----------------------------------*|
|-1--1-1--1-1--1--1--1--3-3--3-3-3-3-3-3-|----------------------------------*|
|----------------------------------------|----------------------------------*|
|----------------------------------------|--3--3--3--3----3--3--3--3--------*|



Duration Legend
---------------
W - whole; H - half; Q - quarter; E - 8th; S - 16th; T - 32nd; X - 64th; a - acciaccatura
+ - note tied to previous; . - note dotted; .. - note double dotted
Uncapitalized letters represent notes that are staccato (1/2 duration)
Irregular groupings are notated above the duration line
Duration letters will always appear directly above the note/fret number it represents the
duration for.  Duration letters with no fret number below them represent rests.  Multi-
bar rests are notated in the form Wxn, where n is the number of bars to rest for.  Low
melody durations appear below the staff

Tablature Legend
----------------
 h   - hammer-on
 p   - pull-off
 b   - bend
 pb  - pre-bend
 r   - bend release (if no number after the r, then release immediately)
 /\  - slide into or out of (from/to "nowhere")
 s   - legato slide
 S   - shift slide
 - natural harmonic
[n]  - artificial harmonic
n(n) - tapped harmonic
 ~   - vibrato
 tr  - trill
 T   - tap
 TP  - trem. picking
 PM  - palm muting
\n/  - tremolo bar dip; n = amount to dip
 \n  - tremolo bar down
 n/  - tremolo bar up
/n\  - tremolo bar inverted dip
 =   - hold bend; also acts as connecting device for hammers/pulls
 <> - volume swell (louder/softer)
 x   - on rhythm slash represents muted slash
 o   - on rhythm slash represents single note slash

Misc Legend
-----------
 |  - bar
||  - double bar
||o - repeat start
o|| - repeat end
*|  - double bar (ending)
 :  - bar (freetime)
 $  - Segno
 &  - Coda
Tempo markers -  = BPM(8/16=s8/s16), where s8 = swing 8ths, s16 = swing 16ths

Tap to rate this tab
 
# A B C D E F G H I J K L M N O P Q R S T U V W X Y Z