Song name
# A B C D E F G H I J K L M N O P Q R S T U V W X Y Z

Nightwish - Romanticide tab

Help us improve GuitareTab! Take a short survey!
Nightwish - Romanticide
Tabbed By: xXxEggyxXx
Email: lordi_are_the_best@hotmail.com

Tuning: Drop D (D A D G B E)

This is only the intro as you can see.

Intro
2x
E|----------------------------------------------------------------||
B|----------------------------------------------------------------||
G|----------------------------------------------------------------||
D|----------------------------------------------------------------||
A|--0-1-0-3---3/5--0-0-1-0------0-1-0-3---3/5--0-0-0--1-0---------||
D|0---------0------0-0-1-0----0---------0------0-0-0--1-0---------||
                 


E|----------------------------------------------------------------||
B|----------------------------------------------------------------||
G|----------------------------------------------------------------||
D|----------------------------------------------------------------||
A|--0-1-0-3---3/5--00-1-0------0-1-0-3---3/5----------------------||
D|0---------0------00-1-0----0---------0--------------------------||
                   


3x
E|--------------------------------||
B|--------------------------------||
G|--------------------------------||
D|--------------------------------||
A|0-0-0--1-0----0-1-0-3---3/5-----||
D|0-0-0--1-0--0---------0---------||
  


E|--------------------------------||
B|--------------------------------||
G|--------------------------------||
D|--------------------------------||
A|00-1-0------1-0---0-------------||
D|00-1-0--0-0-----2---1-----------||
Related for Romanticide tab