Song name
# A B C D E F G H I J K L M N O P Q R S T U V W X Y Z

Nightwish - Wishmaster tab

#----------------------------------PLEASE NOTE---------------------------------#
#This file is the author's own work and represents their interpretation of the #
#song. You may only use this file for private study, scholarship, or research. #
#------------------------------------------------------------------------------#

WISHMASTER
As recorded by Nightwish
(From the 2000 Album WISHMASTER)

Transcribed by Ivan - (peekaboo104@hotmail.com)
	

Words and Music by Nightwish

Gtr I (E A D G B E) - 'Emppu Vuorinen'
Gtr II (E A D G B E) - 'Emppu Vuorinen'
Gtr III (E A D G B E) - 'Emppu Vuorinen'
Gtr IV (E A D G B E) - 'Tuomas Holopainen'
Gtr V (E A D G B E) - 'Tuomas Holopainen'
Gtr VI (E A D G B E) - 'Tuomas Holopainen'

   Intro
    Moderately Q.=175
         C5                       Bb5              C5
   12/8
    Gtr I
    Q  E Q.   Q.   Q  E   H    Q  Q.   Q.     Q  E Q.   Q.   Q  E
||----------------------|-------------------|---------------------|
||o---------------------|-------------------|---------------------|
||----------------------|-------------------|---------------------|
||-------5----5---------|---------3----3----|------5----5---------|
||o------3----3---------|---------1----1----|------3----3---------|
||----------------------|-------------------|---------------------|
|
|   Gtr V
|   Q  E Q.   Q.   Q  E   H    Q  Q.   Q.     Q  E Q.   Q.   Q  E
||-------3----4---------|---------3----1----|------3----4---------|
||o---------------------|-------------------|---------------------|
||----------------------|-------------------|---------------------|
||----------------------|-------------------|---------------------|
||o---------------------|-------------------|---------------------|
||----------------------|-------------------|---------------------|


 1.                      2.
  Ab5       Eb5  Bb5      Ab5       Eb5   Bb5
  H.        Q.   Q.       H.         Q.    Q.
|----------------------||------------------------||
|---------------------o||------------------------||
|-----------3----------||------------3-----------||
|-----------1----3-----||------------1-----3-----||
|-6--------------1----o||-6----------------1-----||
|-4--------------------||-4----------------------||
|
| Q.   Q.   Q.   Q.       Q.   Q.    Q.    Q.
|-4----4----3----1-----||-4----4----11----10-----||
|---------------------o||------------------------||
|----------------------||------------------------||
|----------------------||------------------------||
|---------------------o||------------------------||
|----------------------||------------------------||


 Chorus I
  (F)                         Db5         (F)                         Eb5
   PM----------------------|               PM----------------------|
   E  E  E  E  E  E  E   E  E  Q.          E  E  E  E  E  E  E   E  E  Q.
|---------------------------------------|---------------------------------------|
|---------------------------------------|---------------------------------------|
|---------------------------------------|------------------------------3--------|
|------------------------------6--------|------------------------------1--------|
|------------------------------4--------|---------------------------------------|
|--1--1--1--1--1--1--1---1--1-----------|--1--1--1--1--1--1--1---1--1-----------|
|
| Gtr IV
|  E  E  E  E  E  E  E   E  E  E   E  E    E  E  E  E  E  E  E   E  E  E   E  E
|-20-------20-------20--------20--------|-20-------20-------20--------20--------|
|----21-------21--------21--------21----|----21-------21--------21--------21----|
|-------22-------22--------22--------22-|-------22-------22--------22--------22-|
|---------------------------------------|---------------------------------------|
|---------------------------------------|---------------------------------------|
|---------------------------------------|---------------------------------------|
|
| Gtr V
|  H           Q     Q.        Q.          H           Q     Q.        Q.
|-------------------25--------25--------|-------------------23--------23--------|
|---------------------------------------|---------------------------------------|
|---------------------------------------|---------------------------------------|
|---------------------------------------|---------------------------------------|
|---------------------------------------|---------------------------------------|
|---------------------------------------|---------------------------------------|


  (F)                         Db5                             Bb5
   PM----------------------|                                             ~~~
   E  E  E  E  E  E  E   E  E  Q.         +H.                  Q.        Q.
|---------------------------------------|-------------------------------------------|
|---------------------------------------|-------------------------------------------|
|---------------------------------------|-------------------------------------------|
|------------------------------6--------|-(6)------------------3--------[1]---------|
|------------------------------4--------|-(4)------------------1--------------------|
|--1--1--1--1--1--1--1---1--1-----------|-------------------------------------------|
|
|  E  E  E  E  E  E  E   E  E  E   E  E    E   E  E  E   E  E  E   E  E  E   E  E
|-20-------20-------20--------20--------|-20--------20--------20--------20----------|
|----21-------21--------21--------21----|-----21--------21--------21--------21------|
|-------22-------22--------22--------22-|--------22--------22--------22--------22---|
|---------------------------------------|-------------------------------------------|
|---------------------------------------|-------------------------------------------|
|---------------------------------------|-------------------------------------------|
|
|  H           Q     Q.        Q.          Q.        Q.        Q.        Q.
|-------------------20--------21--------|-21--------21--------28--------27----------|
|---------------------------------------|-------------------------------------------|
|---------------------------------------|-------------------------------------------|
|---------------------------------------|-------------------------------------------|
|---------------------------------------|-------------------------------------------|
|---------------------------------------|-------------------------------------------|


  (F)               Db5                   (F)               Eb5       F5
   PM----------------------|               PM------------|
   E  E  E  E  E  E  E   E  E  Q.          E  E  E  E  E  E  Q.        Q.
|---------------------------------------|---------------------------------------|
|---------------------------------------|---------------------------------------|
|---------------------------------------|--------------------3---------5--------|
|------------------------------6--------|--------------------1---------3--------|
|------------------------------4--------|---------------------------------------|
|--1--1--1--1--1--1--1---1--1-----------|--1--1--1--1--1--1---------------------|
|
|  E  E  E  E  E  E  E   E  E  E   E  E    E  E  E  E  E  E  E   E  E  E   E  E
|-20-------20-------20--------20--------|-20-------20-------20--------20--------|
|----21-------21--------21--------21----|----21-------21--------21--------21----|
|-------22-------22--------22--------22-|-------22-------22--------22--------22-|
|---------------------------------------|---------------------------------------|
|---------------------------------------|---------------------------------------|
|---------------------------------------|---------------------------------------|
|
|  H           Q     Q.        Q.          H           Q     Q.        Q.
|-------------------20--------21--------|-------------------18--------20--------|
|---------------------------------------|---------------------------------------|
|---------------------------------------|---------------------------------------|
|---------------------------------------|---------------------------------------|
|---------------------------------------|---------------------------------------|
|---------------------------------------|---------------------------------------|


  (F)               Db5                                       Bb5       C5
   PM----------------------|
   E  E  E  E  E  E  E   E  E  Q.          Q.        Q.        Q.        Q.
|---------------------------------------|-------------------------------------------||
|---------------------------------------|-------------------------------------------||
|---------------------------------------|-------------------------------------------||
|------------------------------6--------|--6---------6---------3---------5----------||
|------------------------------4--------|--4---------4---------1---------3----------||
|--1--1--1--1--1--1--1---1--1-----------|-------------------------------------------||
|
|  E  E  E  E  E  E  E   E  E  E   E  E    E   E  E  E   E  E  E   E  E  E   E  E
|-20-------20-------20--------20--------|-20--------20--------20--------20----------||
|----21-------21--------21--------21----|-----21--------21--------21--------21------||
|-------22-------22--------22--------22-|--------22--------22--------22--------22---||
|---------------------------------------|-------------------------------------------||
|---------------------------------------|-------------------------------------------||
|---------------------------------------|-------------------------------------------||
|
|  H           Q     Q.        Q.          Q.        Q.        Q.        Q.
|-------------------20--------21--------|---------------------20--------18----------||
|---------------------------------------|-21--------21------------------------------||
|---------------------------------------|-------------------------------------------||
|---------------------------------------|-------------------------------------------||
|---------------------------------------|-------------------------------------------||
|---------------------------------------|-------------------------------------------||


    (C)
      PM|   PM|   PM|           PM|   PM|
    E E E E E E E E E E E E   E E E E E E Q  Q  E E
||--------------------------|-----------------------|
||o-------------------------|-----------------------|
||--------------------------|-------------3---------|
||--5-----5-----6-----5-6-5-|-5-----5--------6--5-3-|
||o---3-3---3-3---3-3-------|---3-3---3-3-----------|
||--------------------------|-----------------------|


                                        Db5   Eb5
    PM|   PM|   PM|           PM|   PM|
  E E E E E E E E E E E E   E E E E E E Q  Q  Q    3x
|-------------------------|------------------------||
|-------------------------|-----------------------o||
|-------------------------|------------------------||
|-5-----5-----6-----5-6-5-|-5-----5-----6--6--8----||
|---3-3---3-3---3-3-------|---3-3---3-3-4--4--6---o||
|-------------------------|------------------------||


   1st Verse
    F5                                      Ab5
         PM----|    PM----|         PM----|        ~~~
     Q   E E E E Q  E E E E     Q   E E E E  Q.    Q.
||--------------------------|---------------------------|
||o-------------------------|---------------------------|
||--------------------------|---------------------------|
||--------------------------|---------------------------|
||o--3-----------3----------|---3------------6----[1]---|
||---1---1-1-1-1-1--1-1-1-1-|---1---1-1-1-1--4----------|
|
|   Gtr IV
|    W.                        +H.           H.
||--13----------------------|-(13)----------11----------|
||o-13----------------------|-(13)----------------------|
||--------------------------|---------------------------|
||--------------------------|---------------------------|
||o-------------------------|---------------------------|
||--------------------------|---------------------------|


 1.
  F5                                      Eb5
       PM----|    PM----|         PM----|
   Q   E E E E Q  E E E E     Q   E E E E  Q   Q  Q
|-------------------------|----------------------------||
|-------------------------|---------------------------o||
|-------------------------|----------------3---3--3----||
|-------------------------|----------------1---1--1----||
|--3-----------3----------|---3-----------------------o||
|--1---1-1-1-1-1--1-1-1-1-|---1---1-1-1-1--------------||
|
|  W.                        +H.           H.
|-13----------------------|-(13)----------11-----------||
|-13----------------------|-(13)----------------------o||
|-------------------------|----------------------------||
|-------------------------|----------------------------||
|-------------------------|---------------------------o||
|-------------------------|----------------------------||


  2.
  F5               Bb5       Eb5
   W.                H.        H.
|----------------|---------------------|
|----------------|---------------------|
|----------------|-------------3-------|
|----------------|---3---------1-------|
|--3-------------|---1-----------------|
|--1-------------|---------------------|
|
|                              ~~~~
|  W.               +H.        H.
|-13-------------|-(13)------(11)------|
|-13-------------|-(13)----------------|
|----------------|---------------------|
|----------------|---------------------|
|----------------|---------------------|
|----------------|---------------------|


    F5
         PM----|    PM----|         PM----|         ~~~
     Q   E E E E Q  E E E E     Q   E E E E   Q.    Q.
||--------------------------|-----------------------------|
||o-------------------------|-----------------------------|
||--------------------------|-----------------------------|
||--------------------------|-----------------------------|
||o--3-----------3----------|---3-------------6-----------|
||---1---1-1-1-1-1--1-1-1-1-|---1---1-1-1-1---4----[6]----|
|
|                                             ~~~~
|    W.                        +H.            H.
||--13----------------------|-(13)----------(11)----------|
||o-13----------------------|-(13)------------------------|
||--------------------------|-----------------------------|
||--------------------------|-----------------------------|
||o-------------------------|-----------------------------|
||--------------------------|-----------------------------|


  1.
  (F)
      PM|   PM|   PM|              PM|   PM|   ~~~~
   E  E E E E E E E E E E E     E  E E E E E   H.
|---------------------------|---------------------------||
|---------------------------|--------------------------o||
|---------------------------|---------------------------||
|---------------------------|-----------------[3]-------||
|--3------3-----4-----3-4-3-|---3------3---------------o||
|-----1-1---1-1---1-1-------|------1-1---1-1------------||
|
|                                              ~~~~
|  W.                          +H.             H.
|-13------------------------|-(13)-----------(11)-------||
|-13------------------------|-(13)---------------------o||
|---------------------------|---------------------------||
|---------------------------|---------------------------||
|---------------------------|--------------------------o||
|---------------------------|---------------------------||


 2.
  F5                     Bb5   F#5                 F5          Bb5  F#5
                 PM--|                ~~~                PM--|
   W         +E  E E E    Q.    Q.    Q.    Q.      Q.   E E E Q.   Q.
|----------------------|-------------------------|------------------------||
|----------------------|-------------------------|------------------------||
|----------------------|-------------------------|------------------------||
|----------------------|--3----------------------|-------------3----------||
|--3---------(3)-------|--1-----4-----1-----4----|--3----------1----4-----||
|--1---------(1)-1-1-1-|--------2-----------2----|--1----4-4-4------2-----||
|
|  W.                     Q.    Q.    Q.    Q.      Q.   E W
|-13-------------------|-------------------------|------------------------||
|-13-------------------|-11----------------------|------------------------||
|----------------------|-------11----------11----|-10---------------------||
|----------------------|-------------13----------|------------------------||
|----------------------|-------------------------|------------------------||
|----------------------|-------------------------|------------------------||


   Chorus II
             C5       F5                                    Bb5      Bb5
     Q     E  Q.       Q.       E  Q       H           Q     Q.       Q.
||--------------------------------------|-------------------------------------|
||o-------------------------------------|-------------------------------------|
||---------------------5----------------|-------------------------------------|
||------------5--------3----------------|--------------------3--------3-------|
||o-----------3-------------------------|--------------------1--------1-------|
||--------------------------------------|-------------------------------------|
|
|   Gtr IV
|    T        T        T        T          T        T        T        T
|    E  E  E  E  E  E  E  E  E  E  E  E    E  E  E  E  E  E  E  E  E  E  E  E
||--27p23p20-27p23p20-28p23p20-28p23p20-|-28p23p20-28p23p20-27p23p20-27p23p20-|
||o-------------------------------------|-------------------------------------|
||--------------------------------------|-------------------------------------|
||--------------------------------------|-------------------------------------|
||o-------------------------------------|-------------------------------------|
||--------------------------------------|-------------------------------------|


           C5       F5                  Ab5               Eb5      Bb5
   Q     E  Q.       Q.       E  Q       H.                Q.       Q.
|-------------------------------------|---------------------------------------||
|-------------------------------------|--------------------------------------o||
|--------------------5----------------|--------------------3------------------||
|-----------5--------3----------------|--------------------1--------3---------||
|-----------3-------------------------|--6--------------------------1--------o||
|-------------------------------------|--4------------------------------------||
|
|  T        T        T        T          T        T        T        T
|  E  E  E  E  E  E  E  E  E  E  E  E    E  E  E  E  E  E  E  E  E  E  E  E
|-27p23p20-27p23p20-28p23p20-28p23p20-|-28p23p20-28p23p20-27p23p20-27p23p20---||
|-------------------------------------|--------------------------------------o||
|-------------------------------------|---------------------------------------||
|-------------------------------------|---------------------------------------||
|-------------------------------------|--------------------------------------o||
|-------------------------------------|---------------------------------------||


    (C)
      PM|   PM|   PM|           PM|   PM|
    E E E E E E E E E E E E   E E E E E E Q  Q  E E
||--------------------------|-----------------------|
||o-------------------------|-----------------------|
||--------------------------|-------------3---------|
||--5-----5-----6-----5-6-5-|-5-----5--------6--5-3-|
||o---3-3---3-3---3-3-------|---3-3---3-3-----------|
||--------------------------|-----------------------|
|
|   W                         W
||--------------------------|-----------------------|
||o-------------------------|-----------------------|
||--------------------------|-----------------------|
||--------------------------|-----------------------|
||o-------------------------|-----------------------|
||--------------------------|-----------------------|


                                          Db5   Eb5
      PM|   PM|   PM|           PM|   PM|
   E  E E E E E E E E E E E   E E E E E E Q  Q  Q    3x
|---------------------------|------------------------||
|---------------------------|-----------------------o||
|---------------------------|------------------------||
|--5------5-----6-----5-6-5-|-5-----5-----6--6--8----||
|-----3-3---3-3---3-3-------|---3-3---3-3-4--4--6---o||
|---------------------------|------------------------||
|
|  Q.     E W                 W                      3x
|-20------------------------|------------------------||
|---------------------------|-----------------------o||
|---------------------------|------------------------||
|---------------------------|------------------------||
|---------------------------|-----------------------o||
|---------------------------|------------------------||


   2nd Verse
    F5                                      Ab5
         PM----|    PM----|         PM----|        ~~~
     Q   E E E E Q  E E E E     Q   E E E E  Q.    Q.
||--------------------------|---------------------------|
||o-------------------------|---------------------------|
||--------------------------|---------------------------|
||--------------------------|---------------------------|
||o--3-----------3----------|---3------------6----------|
||---1---1-1-1-1-1--1-1-1-1-|---1---1-1-1-1--4----[6]---|
|
|    W.                        +H.           H.
||--13----------------------|-(13)----------11----------|
||o-13----------------------|-(13)----------------------|
||--------------------------|---------------------------|
||--------------------------|---------------------------|
||o-------------------------|---------------------------|
||--------------------------|---------------------------|


 1.
                                          Eb5
       PM----|    PM----|         PM----|
   Q   E E E E Q  E E E E     Q   E E E E   Q   Q  Q
|-------------------------|-----------------------------||
|-------------------------|----------------------------o||
|-------------------------|-----------------3---3--3----||
|-------------------------|-----------------1---1--1----||
|--3-----------3----------|---3------------------------o||
|--1---1-1-1-1-1--1-1-1-1-|---1---1-1-1-1---------------||
|
|                                           ~~~~
|  W.                        +H.            H.
|-13----------------------|-(13)----------(11)----------||
|-13----------------------|-(13)-----------------------o||
|-------------------------|-----------------------------||
|-------------------------|-----------------------------||
|-------------------------|----------------------------o||
|-------------------------|-----------------------------||


  2.
  F5               Bb5       Eb5
   W.                H.       H.
|----------------|--------------------|
|----------------|--------------------|
|----------------|------------3-------|
|----------------|---3--------1-------|
|--3-------------|---1----------------|
|--1-------------|--------------------|
|
|  W.               +H.       H.
|-13-------------|-(13)------11-------|
|-13-------------|-(13)---------------|
|----------------|--------------------|
|----------------|--------------------|
|----------------|--------------------|
|----------------|--------------------|


    F5                                      Ab5
         PM----|    PM----|         PM----|        ~~~
     Q   E E E E Q  E E E E     Q   E E E E  Q.    Q.
||--------------------------|----------------------------|
||o-------------------------|----------------------------|
||--------------------------|----------------------------|
||--------------------------|----------------------------|
||o--3-----------3----------|---3------------6-----------|
||---1---1-1-1-1-1--1-1-1-1-|---1---1-1-1-1--4----[6]----|
|
|    W.                        +H.           H.
||--13----------------------|-(13)----------11-----------|
||o-13----------------------|-(13)-----------------------|
||--------------------------|----------------------------|
||--------------------------|----------------------------|
||o-------------------------|----------------------------|
||--------------------------|----------------------------|


  1.
  (F)
      PM|   PM|   PM|              PM|   PM|  ~~~
   E  E E E E E E E E E E E     E  E E E E E  H.
|---------------------------|--------------------------||
|---------------------------|-------------------------o||
|---------------------------|--------------------------||
|---------------------------|----------------[3]-------||
|--3------3-----4-----3-4-3-|---3------3--------------o||
|-----1-1---1-1---1-1-------|------1-1---1-1-----------||
|
|  W.                          +H.            H.
|-13------------------------|-(13)-----------11--------||
|-13------------------------|-(13)--------------------o||
|---------------------------|--------------------------||
|---------------------------|--------------------------||
|---------------------------|-------------------------o||
|---------------------------|--------------------------||


 2.
  F5                     Bb5   F#5                 F5          Bb5  F#5
                 PM--|                ~~~                PM--|
   W         +E  E E E    Q.    Q.    Q.    Q.      Q.   E E E Q.   Q.
|----------------------|-------------------------|------------------------||
|----------------------|-------------------------|------------------------||
|----------------------|-------------------------|------------------------||
|----------------------|--3----------------------|-------------3----------||
|--3---------(3)-------|--1-----4-----1-----4----|--3----------1----4-----||
|--1---------(1)-1-1-1-|--------2-----------2----|--1----4-4-4------2-----||
|
|  W.                     Q.    Q.    Q.    Q.      Q.   E W
|-13-------------------|-------------------------|------------------------||
|-13-------------------|-11----------------------|------------------------||
|----------------------|-------11----------11----|-10---------------------||
|----------------------|-------------13----------|------------------------||
|----------------------|-------------------------|------------------------||
|----------------------|-------------------------|------------------------||


   Chorus III
             C5       F5                                    Bb5
     Q     E  Q.       Q.       E  Q       H           Q     Q.       Q.
||--------------------------------------|-------------------------------------|
||o-------------------------------------|-------------------------------------|
||---------------------5----------------|-------------------------------------|
||------------5--------3----------------|--------------------3--------3-------|
||o-----------3-------------------------|--------------------1--------1-------|
||--------------------------------------|-------------------------------------|
|
|   Gtr IV
|    T        T        T        T          T        T        T        T
|    E  E  E  E  E  E  E  E  E  E  E  E    E  E  E  E  E  E  E  E  E  E  E  E
||--27p23p20-27p23p20-28p23p20-28p23p20-|-28p23p20-28p23p20-27p23p20-27p23p20-|
||o-------------------------------------|-------------------------------------|
||--------------------------------------|-------------------------------------|
||--------------------------------------|-------------------------------------|
||o-------------------------------------|-------------------------------------|
||--------------------------------------|-------------------------------------|
|
|   Gtr V
|    Q     E  Q.       Q.       E  Q       H           Q     Q.       Q.
||--------------------------------------|-------------------------------------|
||o-------------------------------------|-------------------------------------|
||-----------12-------13----------------|-------------------12-------10-------|
||--------------------------------------|-------------------------------------|
||o-------------------------------------|-------------------------------------|
||--------------------------------------|-------------------------------------|


           C5       F5                  Ab5               Eb5      Bb5
   Q     E  Q.       Q.       E  Q       H.                Q.       Q.
|-------------------------------------|---------------------------------------||
|-------------------------------------|--------------------------------------o||
|--------------------5----------------|--------------------3------------------||
|-----------5--------3----------------|--------------------1--------3---------||
|-----------3-------------------------|--6--------------------------1--------o||
|-------------------------------------|--4------------------------------------||
|
|  T        T        T        T          T        T        T        T
|  E  E  E  E  E  E  E  E  E  E  E  E    E  E  E  E  E  E  E  E  E  E  E  E
|-27p23p20-27p23p20-28p23p20-28p23p20-|-28p23p20-28p23p20-27p23p20-27p23p20---||
|-------------------------------------|--------------------------------------o||
|-------------------------------------|---------------------------------------||
|-------------------------------------|---------------------------------------||
|-------------------------------------|--------------------------------------o||
|-------------------------------------|---------------------------------------||
|
|  Q     E  Q.       Q.       E  Q       H.                Q.       Q.
|-------------------------------------|---------------------------------------||
|-------------------------------------|--------------------------------------o||
|----------12-------13----------------|-13----------------12-------10---------||
|-------------------------------------|---------------------------------------||
|-------------------------------------|--------------------------------------o||
|-------------------------------------|---------------------------------------||


 Chorus IV
  (F)                         Db5         (F)                         Eb5
   PM----------------------|               PM----------------------|
   E  E  E  E  E  E  E   E  E  Q.          E  E  E  E  E  E  E   E  E  Q.
|---------------------------------------|---------------------------------------|
|---------------------------------------|---------------------------------------|
|---------------------------------------|------------------------------3--------|
|------------------------------6--------|------------------------------1--------|
|------------------------------4--------|---------------------------------------|
|--1--1--1--1--1--1--1---1--1-----------|--1--1--1--1--1--1--1---1--1-----------|
|
|  E  E  E  E  E  E  E   E  E  E   E  E    E  E  E  E  E  E  E   E  E  E   E  E
|-20-------20-------20--------20--------|-20-------20-------20--------20--------|
|----21-------21--------21--------21----|----21-------21--------21--------21----|
|-------22-------22--------22--------22-|-------22-------22--------22--------22-|
|---------------------------------------|---------------------------------------|
|---------------------------------------|---------------------------------------|
|---------------------------------------|---------------------------------------|
|
|  H           Q     Q.        Q.          H           Q     Q.        Q.
|-------------------25--------25--------|-------------------23--------23--------|
|---------------------------------------|---------------------------------------|
|---------------------------------------|---------------------------------------|
|---------------------------------------|---------------------------------------|
|---------------------------------------|---------------------------------------|
|---------------------------------------|---------------------------------------|


  (F)                         Db5                             Bb5
   PM----------------------|                                             ~~~
   E  E  E  E  E  E  E   E  E  Q.         +H.                  Q.        Q.
|---------------------------------------|-------------------------------------------|
|---------------------------------------|-------------------------------------------|
|---------------------------------------|-------------------------------------------|
|------------------------------6--------|-(6)------------------3--------[1]---------|
|------------------------------4--------|-(4)------------------1--------------------|
|--1--1--1--1--1--1--1---1--1-----------|-------------------------------------------|
|
|  E  E  E  E  E  E  E   E  E  E   E  E    E   E  E  E   E  E  E   E  E  E   E  E
|-20-------20-------20--------20--------|-20--------20--------20--------20----------|
|----21-------21--------21--------21----|-----21--------21--------21--------21------|
|-------22-------22--------22--------22-|--------22--------22--------22--------22---|
|---------------------------------------|-------------------------------------------|
|---------------------------------------|-------------------------------------------|
|---------------------------------------|-------------------------------------------|
|
|  H           Q     Q.        Q.          Q.        Q.        Q.        Q.
|-------------------20--------21--------|-21--------21--------28--------27----------|
|---------------------------------------|-------------------------------------------|
|---------------------------------------|-------------------------------------------|
|---------------------------------------|-------------------------------------------|
|---------------------------------------|-------------------------------------------|
|---------------------------------------|-------------------------------------------|


  (F)                         Db5         F                 Eb5       F5
   PM-------------------|      PM------------------------|
   E  E  E  E  E  E  E   E  E  Q.          E  E  E  E  E  E  Q.        Q.
|---------------------------------------|---------------------------------------|
|---------------------------------------|---------------------------------------|
|---------------------------------------|--------------------3---------5--------|
|------------------------------6--------|--------------------1---------3--------|
|------------------------------4--------|---------------------------------------|
|--1--1--1--1--1--1--1---1--1-----------|--1--1--1--1--1--1---------------------|
|
|  E  E  E  E  E  E  E   E  E  E   E  E    E  E  E  E  E  E  E   E  E  E   E  E
|-20-------20-------20--------20--------|-20-------20-------20--------20--------|
|----21-------21--------21--------21----|----21-------21--------21--------21----|
|-------22-------22--------22--------22-|-------22-------22--------22--------22-|
|---------------------------------------|---------------------------------------|
|---------------------------------------|---------------------------------------|
|---------------------------------------|---------------------------------------|
|
|  H           Q     Q.        Q.          H           Q     Q.        Q.
|-------------------20--------21--------|-------------------18--------20--------|
|---------------------------------------|---------------------------------------|
|---------------------------------------|---------------------------------------|
|---------------------------------------|---------------------------------------|
|---------------------------------------|---------------------------------------|
|---------------------------------------|---------------------------------------|


            (F)                Db5                             Bb5       C5
          PM----------------|
    E  E  E  E  E  E  E   E  E  Q.          Q.        Q.        Q.        Q.
|----------------------------------------|-------------------------------------------||
|----------------------------------------|-------------------------------------------||
|-/13p12p10------------------------------|-------------------------------------------||
|-------------------------------6--------|--6---------6---------3---------5----------||
|-------------------------------4--------|--4---------4---------1---------3----------||
|------------1--1--1--1---1--1-----------|-------------------------------------------||
|
|   E  E  E  E  E  E  E   E  E  E   E  E    E   E  E  E   E  E  E   E  E  E   E  E
|--20-------20-------20--------20--------|-20--------20--------20--------20----------||
|-----21-------21--------21--------21----|-----21--------21--------21--------21------||
|--------22-------22--------22--------22-|--------22--------22--------22--------22---||
|----------------------------------------|-------------------------------------------||
|----------------------------------------|-------------------------------------------||
|----------------------------------------|-------------------------------------------||
|
|   H           Q     Q.        Q.          Q.        Q.        Q.        Q.
|--------------------20--------21--------|---------------------20--------18----------||
|----------------------------------------|-21--------21------------------------------||
|----------------------------------------|-------------------------------------------||
|----------------------------------------|-------------------------------------------||
|----------------------------------------|-------------------------------------------||
|----------------------------------------|-------------------------------------------||


  F5
   W.              +W.              +W.              +W.
|----------------|----------------|----------------|--------||
|----------------|----------------|----------------|--------||
|----------------|----------------|----------------|--------||
|----------------|----------------|----------------|--------||
|--3-------------|-(3)------------|-(3)------------|-(3)----||
|--1-------------|-(1)------------|-(1)------------|-(1)----||
|
| Gtr V
|  W.               W.               W.               W.
|----------------|----------------|----------------|-20-----||
|----------------|----------------|-18-------------|--------||
|----------------|-17-------------|----------------|--------||
|-18-------------|----------------|----------------|--------||
|----------------|----------------|----------------|--------||
|----------------|----------------|----------------|--------||


   Interlude
    C5
    Q  E E E E Q  E E E E   Q  E E E E Q  E E E E
||------------------------|-----------------------|
||o------------6--6-6-----|------------6--6-6-----|
||--8--8-8-7-5--------8-7-|-8--8-8-7-5--------8-7-|
||------------------------|-----------------------|
||o-----------------------|-----------------------|
||------------------------|-----------------------|
|
|   Gtr II
|   Q  E E E E Q  E E E E   Q  E E E E Q  E E E E
||------------------------|-----------------------|
||o-8--8-8-6---9--9-9-8-6-|-8--8-8-6---9--9-9-8-6-|
||-----------8------------|----------8------------|
||------------------------|-----------------------|
||o-----------------------|-----------------------|
||------------------------|-----------------------|
|
|   Gtr III
|      PM----|    PM----|      PM----|    PM----|
|   Q  E E E E Q  E E E E   Q  E E E E Q  E E E E
||------------------------|-----------------------|
||o-----------------------|-----------------------|
||------------------------|-----------------------|
||--5----------5----------|-5----------5----------|
||o-3--3-3-3-3-3--3-3-3-3-|-3--3-3-3-3-3--3-3-3-3-|
||------------------------|-----------------------|


  Ab5                     G5         Ab5    Bb5
  Q  E E E E Q  E E E E   Q  E E E E E  E E E  E E
|-----------------------|----------------------------||
|------------6--6-6---6-|-8--8-8-6---6--------------o||
|-8--8-8-7-5--------8---|----------8----8-7-8--7-5---||
|-----------------------|----------------------------||
|-----------------------|---------------------------o||
|-----------------------|----------------------------||
|
| Q  E E E E Q  E E E E   Q  E E E E E  E E E  E E
|-----------------------|-6--6-6---------------------||
|-8--8-8-6---9--9-9-8-6-|--------9-8-9--8-6-8--6----o||
|----------8------------|------------------------8---||
|-----------------------|----------------------------||
|-----------------------|---------------------------o||
|-----------------------|----------------------------||
|
|    PM----|    PM----|      PM----|
| Q  E E E E Q  E E E E   Q  E E E E Q.     Q.
|-----------------------|----------------------------||
|-----------------------|---------------------------o||
|-----------------------|----------------------------||
|-----------------------|-------------------3--------||
|-6----------6----------|-5----------6------1-------o||
|-4--4-4-4-4-4--4-4-4-4-|-3--3-3-3-3-4---------------||


    F5
     Q   E E E E Q  E E E E     Q   E E E E Q  E E E E
||---------------6--6-6-----|---------------6--6-----6-|
||o--9---9-9-8-6--------9-8-|---9---9-9-8-6------8-9---|
||--------------------------|--------------------------|
||--------------------------|--------------------------|
||o-------------------------|--------------------------|
||--------------------------|--------------------------|
|
|    W.                         W.
||--------------------------|--------------------------|
||o-------------------------|--------------------------|
||--------------------------|--------------------------|
||--------------------------|--------------------------|
||o--3----------------------|---3----------------------|
||---1----------------------|---1----------------------|
|
|   Gtr VI
|    W.                        +W.
||--13----------------------|-(13)---------------------|
||o-11----------------------|-(11)---------------------|
||--10----------------------|-(10)---------------------|
||--------------------------|--------------------------|
||o-------------------------|--------------------------|
||--------------------------|--------------------------|


                              1.                          2.
  Ab5                          Eb5          C5             Eb5          Bb5
   Q   E E E E  Q   E  E E E    Q   E E E E  Q.   Q.        Q   E E E E Q.   Q.
|--8---8-8-8-9-11--11-11-9-8-|--6---6-6-8-6-------------||--6---6-6-8-6------------||
|----------------------------|---------------9----8----o||--------------9----------||
|----------------------------|--------------------------||-------------------6-----||
|----------------------------|--------------------------||-------------------------||
|----------------------------|-------------------------o||-------------------------||
|----------------------------|--------------------------||-------------------------||
|
|  W.                           H.           H.             H.          H.
|----------------------------|--------------------------||-------------------------||
|----------------------------|-------------------------o||-------------------------||
|----------------------------|--3-----------------------||--3----------------------||
|----------------------------|--1------------5----------||--1-----------3----------||
|--6-------------------------|---------------3---------o||--------------1----------||
|--4-------------------------|--------------------------||-------------------------||
|
|  W.                           H.           H.             W.
|-16-------------------------|--------------------------||-------------------------||
|-16-------------------------|-16-----------17---------o||-16----------------------||
|-13-------------------------|-15-----------17----------||-15----------------------||
|----------------------------|-13-----------14----------||-------------------------||
|----------------------------|-------------------------o||-18----------------------||
|----------------------------|--------------------------||-------------------------||


    C5                                              Ab5
    Q  E E E E Q  E E E E   Q  E E E E Q  E E E E   Q  E E E E Q  E E E E
||------------------------|-----------------------|-----------------------|
||o------------6--6-6-----|------------6--6-6-----|------------6--6-6---6-|
||--8--8-8-7-5--------8-7-|-8--8-8-7-5--------8-7-|-8--8-8-7-5--------8---|
||------------------------|-----------------------|-----------------------|
||o-----------------------|-----------------------|-----------------------|
||------------------------|-----------------------|-----------------------|
|
|   Q  E E E E Q  E E E E   Q  E E E E Q  E E E E   Q  E E E E Q  E E E E
||------------------------|-----------------------|-----------------------|
||o-8--8-8-6---9--9-9-8-6-|-8--8-8-6---9--9-9-8-6-|-8--8-8-6---9--9-9-8-6-|
||-----------8------------|----------8------------|----------8------------|
||------------------------|-----------------------|-----------------------|
||o-----------------------|-----------------------|-----------------------|
||------------------------|-----------------------|-----------------------|
|
|   Gtr III
|      PM----|    PM----|      PM----|    PM----|      PM----|    PM----|
|   Q  E E E E Q  E E E E   Q  E E E E Q  E E E E   Q  E E E E Q  E E E E
||------------------------|-----------------------|-----------------------|
||o-----------------------|-----------------------|-----------------------|
||------------------------|-----------------------|-----------------------|
||--5----------5----------|-5----------5----------|-----------------------|
||o-3--3-3-3-3-3--3-3-3-3-|-3--3-3-3-3-3--3-3-3-3-|-6----------6----------|
||------------------------|-----------------------|-4--4-4-4-4-4--4-4-4-4-|


 1.                           2.
  G5         Ab5    Bb5        Eb5         Bb5
  Q  E E E E E  E E E  E E     Q   E E E E E  E E E E E
|---------------------------||-----------------------------||
|-8--8-8-6---6-------------o||-8---8-8-6---6---------------||
|----------8----8-7-8--7-5--||-----------8----8-7-8-7-5----||
|---------------------------||-----------------------------||
|--------------------------o||-----------------------------||
|---------------------------||-----------------------------||
|
| Q  E E E E E  E E E  E E     Q   E E E E E  E E E E E
|-6--6-6--------------------||-6---6-6---------------------||
|--------9-8-9--8-6-8--6---o||---------9-8-9--8-6-8-6------||
|------------------------8--||------------------------8----||
|---------------------------||-----------------------------||
|--------------------------o||-----------------------------||
|---------------------------||-----------------------------||
|
|    PM----|
| Q  E E E E Q.     Q.         H.          H.
|---------------------------||-----------------------------||
|--------------------------o||-----------------------------||
|---------------------------||-3---------------------------||
|-------------------3-------||-1-----------3---------------||
|-5----------6------1------o||-------------1---------------||
|-3--3-3-3-3-4--------------||-----------------------------||


   Bridge
    F5                               C5
    W.              +W.              W.              +W.
||----------------|----------------|---------------|--------|
||o---------------|----------------|---------------|--------|
||----------------|----------------|---------------|--------|
||----------------|----------------|-5-------------|-(5)----|
||o-3-------------|-(3)------------|-3-------------|-(3)----|
||--1-------------|-(1)------------|---------------|--------|


  Db5                              Bb5
  W.              +W.              W.              +W.
|---------------|----------------|---------------|---------||
|---------------|----------------|---------------|--------o||
|---------------|----------------|---------------|---------||
|-6-------------|-(6)------------|-3-------------|-(3)-----||
|-4-------------|-(4)------------|-1-------------|-(1)----o||
|---------------|----------------|---------------|---------||


  (C)
      PM|   PM|   PM|           PM|   PM|
   E  E E E E E E E E E E E   E E E E E E Q  Q  Q
|---------------------------|----------------------||
|---------------------------|----------------------||
|---------------------------|----------------------||
|--5------5-----6-----5-6-5-|-5-----5-----6--6--8--||
|-----3-3---3-3---3-3-------|---3-3---3-3-4--4--6--||
|---------------------------|----------------------||
|
|                                                  Gt
|  W                          W
|---------------------------|----------------------||
|---------------------------|----------------------||
|---------------------------|----------------------||
|---------------------------|----------------------||
|---------------------------|----------------------||
|---------------------------|----------------------||
|
| Gtr V                                            Gt
|  Q.     E W                 W
|-20------------------------|----------------------||
|---------------------------|----------------------||
|---------------------------|----------------------||
|---------------------------|----------------------||
|---------------------------|----------------------||
|---------------------------|----------------------||


 Guitar Solo - E.Vuorinen
  F5                                         Ab5
   ~~~                           ~~~                 ~~~~~~
   W.                        a   W               +E  E +Q
|-------------------------|----------------------------------|
|-/6----------------------|-(6)s=5---------------(5)---------|
|-------------------------|--------------------------6-(6)---|
|-------------------------|----------------------------------|
|-------------------------|----------------------------------|
|-------------------------|----------------------------------|
|
|r II
|      PM----|    PM----|            PM----|
|  Q   E E E E Q  E E E E        Q   E E E E H.
|-------------------------|----------------------------------|
|-------------------------|----------------------------------|
|-------------------------|----------------------------------|
|-------------------------|----------------------------------|
|--3-----------3----------|------3-----------6---------------|
|--1---1-1-1-1-1--1-1-1-1-|------1---1-1-1-1-4---------------|
|
|r IV
|  W.                            W.
|-16----------------------|----------------------------------|
|-18----------------------|----------------------------------|
|-------------------------|-----17---------------------------|
|-18----------------------|-----18---------------------------|
|-------------------------|-----15---------------------------|
|-------------------------|----------------------------------|


  F5                                       Eb5
  ~~~~~~~~~~~~~~~~~~~~~~~~~~~~~
  W.                       +Q.    E.  E.   H.
|------------------------|-------------------------|
|------------------------|-------------------------|
|-5----------------------|-(5)----5h==6----5-------|
|------------------------|-------------------------|
|------------------------|-------------------------|
|------------------------|-------------------------|
|
| Gtr III
|     PM----|    PM----|        PM-------|
| Q   E E E E Q  E E E E    Q   E E E    E H.
|------------------------|-------------------------|
|------------------------|-------------------------|
|------------------------|-----------------3-------|
|------------------------|-----------------1-------|
|-3-----------3----------|--3----------------------|
|-1---1-1-1-1-1--1-1-1-1-|--1---1-1-1----1---------|


  F5                                 Ab5
  W             Q   Q     W              Q  Q
|-4-------------4s==6---|-6--------------6--8---|
|-6-------------6s==8---|-6--------------8--9---|
|-----------------------|-----------------------|
|-----------------------|-----------------------|
|-----------------------|-----------------------|
|-----------------------|-----------------------|
| W             Q   Q     W              Q  Q
|
|    PM----|    PM----|      PM----|
| Q  E E E E Q  E E E E   Q  E E E E H.
|-----------------------|-----------------------|
|-----------------------|-----------------------|
|-----------------------|-----------------------|
|-----------------------|-----------------------|
|-3----------3----------|-3----------6----------|
|-1--1-1-1-1-1--1-1-1-1-|-1--1-1-1-1-4----------|


  F5                                     Eb5
                            \1_____________/
  W.                        H.            +H.
|-8----------------------|-------------------------|
|-9----------------------|-11------------(11)------|
|------------------------|--9-------------(9)------|
|------------------------|-------------------------|
|------------------------|-------------------------|
|------------------------|-------------------------|
| W.                        H.            +H.
|
|     PM----|    PM----|         PM----|
| Q   E E E E Q  E E E E    Q    E E E E   H.
|------------------------|-------------------------|
|------------------------|-------------------------|
|------------------------|-----------------3-------|
|------------------------|-----------------1-------|
|-3-----------3----------|--3----------------------|
|-1---1-1-1-1-1--1-1-1-1-|--1----1-1-1-1-----------|
|
| W                         W
|------------------------|-------------------------|
|------------------------|-------------------------|
|------------------------|-------------------------|
|------------------------|-------------------------|
|------------------------|-------------------------|
|------------------------|-------------------------|


  F5                                                     Ab5
   E   E  E  E  E E  E E  E E  E  E     E   E  E E  E  E E   E  E E  E  E
|-----------------------------------|---------------------------------------|
|-----------------------------------|---------------------------------------|
|-----------------------------------|---8-----------------------------------|
|-----------------8----8-10-8-10-11-|------10-11-8-10----8------------------|
|--8--10-11-10-11---11--------------|-----------------11----10-11-8-11------|
|-----------------------------------|----------------------------------11---|
|
|         PM------|       PM-----|             PM-----|
|  Q      E  E  E E  Q    E E  E  E     Q      E E  E  E H.
|-----------------------------------|---------------------------------------|
|-----------------------------------|---------------------------------------|
|-----------------------------------|---------------------------------------|
|-----------------------------------|---------------------------------------|
|--3-----------------3--------------|---3----------------6------------------|
|--1------1--1--1-1--1----1-1--1--1-|---1------1-1--1--1-4------------------|
|
| Gtr IV
|  W.                                  +W.
|-----------------------------------|---------------------------------------|
|-13--------------------------------|-(13)----------------------------------|
|-13--------------------------------|-(13)----------------------------------|
|-10--------------------------------|-(10)----------------------------------|
|-----------------------------------|---------------------------------------|
|-----------------------------------|---------------------------------------|


  F5
                             ~~~
   E   E  E  E  E  E  E E E  Q.
|-----------------------------------|
|-----------------------------------|
|---------------------------10------|
|-----------------------8-8---------|
|--8--10-11-10-11-13-11-------------|
|-----------------------------------|
|
|         PM------|       PM------|
|  Q      E  E  E  E  Q   E  E  E E
|-----------------------------------|
|-----------------------------------|
|-----------------------------------|
|-----------------------------------|
|--3------------------3-------------|
|--1------1--1--1--1--1---1--1--1-1-|
|
|  W.
|-----------------------------------|
|-13--------------------------------|
|-13--------------------------------|
|-10--------------------------------|
|-----------------------------------|
|-----------------------------------|


                     Eb5                  F5
    E   E  E E  E  E  E   E  E  E  E  E    W.
|------------------------------------13-|-------------------------|
|------------------------------13-14----|-13----------------------|
|--------------------12--13-15----------|-12----------------------|
|------------8-10-11--------------------|-------------------------|
|---8--10-11----------------------------|-------------------------|
|---------------------------------------|-------------------------|
|
|          PM-----|                            PM----|    PM----|
|   Q      E E  E  E  H.                   Q   E E E E Q  E E E E
|---------------------------------------|-------------------------|
|---------------------------------------|-------------------------|
|---------------------3-----------------|-------------------------|
|---------------------1-----------------|-------------------------|
|---3-----------------------------------|--3-----------3----------|
|---1------1-1--1--1--------------------|--1---1-1-1-1-1--1-1-1-1-|
|
|  +W.                                     W
|---------------------------------------|-------------------------|
|-(13)----------------------------------|-------------------------|
|-(13)----------------------------------|-------------------------|
|-(10)----------------------------------|-------------------------|
|---------------------------------------|-------------------------|
|---------------------------------------|-------------------------|


                    Ab5
                                ~~~~~~~~~~~~~~~~~~~~~~~~~~
   Q.       +Q.      H.         H.           H.
|----------------------------|---------------------------|
|----------------------------|---------------------------|
|-13b14r===(13)-----10-------|-10-----------10-----------|
|----------------------------|---------------------------|
|----------------------------|---------------------------|
|----------------------------|---------------------------|
|
|        PM-------|                 PM----|      PM----|
|  Q     E   E  E E  H.         Q   E E E E  Q   E E E E
|----------------------------|---------------------------|
|----------------------------|---------------------------|
|----------------------------|---------------------------|
|----------------------------|---------------------------|
|--3-----------------6-------|--3------------3-----------|
|--1-----1---1--1-1--4-------|--1---1-1-1-1--1---1-1-1-1-|


  Bb5   F#5                   F5             Bb5  F#5
 ~~~~~                                       ~~~~~~~~
   H.        E.  E. E.  E.    E  E  E  E E E Q.   Q.
|---------------------------|---------------------------||
|---------------------------|-8-------------------------||
|-10------------10----------|----8-10----8--------------||
|------------8------8--11---|---------10---8------------||
|---------------------------|----------------6----8-----||
|---------------------------|---------------------------||
|
|            ~~                        PM--|
|  Q.   Q.   Q.     Q.        Q.       E E E Q.   Q.
|---------------------------|---------------------------||
|---------------------------|---------------------------||
|---------------------------|---------------------------||
|--3------------------------|----------------3----------||
|--1----4----1------4-------|-3--------------1----4-----||
|-------2-----------2-------|-1--------4-4-4------2-----||


 Chorus V
           C5       F5                                     Bb5
   Q     E  Q.       Q.       E  Q        H           Q     Q.       Q.
|-------------------------------------|--------------------------------------|
|-------------------------------------|--------------------------------------|
|--------------------5----------------|--------------------------------------|
|-----------5--------3----------------|---------------------3--------3-------|
|-----------3-------------------------|---------------------1--------1-------|
|-------------------------------------|--------------------------------------|
|
|  ~~~~~~~~~~~~~~~~~~~~~~~~~~~~~~~~~~~~~~~~~~
|  W.                                    +W.
|-------------------------------------|--------------------------------------|
|-------------------------------------|--------------------------------------|
|-------------------------------------|--------------------------------------|
|-10----------------------------------|-(10)---------------------------------|
|-------------------------------------|--------------------------------------|
|-------------------------------------|--------------------------------------|
|
| Gtr IV
|  T        T        T        T           T        T        T        T
|  E  E  E  E  E  E  E  E  E  E  E  E     E  E  E  E  E  E  E  E  E  E  E  E
|-27p23p20-27p23p20-28p23p20-28p23p20-|--28p23p20-28p23p20-27p23p20-27p23p20-|
|-------------------------------------|--------------------------------------|
|-------------------------------------|--------------------------------------|
|-------------------------------------|--------------------------------------|
|-------------------------------------|--------------------------------------|
|-------------------------------------|--------------------------------------|


           C5       F5                  Ab5               Eb5      Bb5
   Q     E  Q.       Q.       E  Q       H.                Q.       Q.
|-------------------------------------|---------------------------------------|
|-------------------------------------|---------------------------------------|
|--------------------5----------------|--------------------3------------------|
|-----------5--------3----------------|--------------------1--------3---------|
|-----------3-------------------------|--6--------------------------1---------|
|-------------------------------------|--4------------------------------------|
|
|                                       Gtr V
|  W                                     H.                Q.       Q.
|-------------------------------------|---------------------------------------|
|-------------------------------------|---------------------------------------|
|-------------------------------------|-13----------------12-------10---------|
|-------------------------------------|---------------------------------------|
|-------------------------------------|---------------------------------------|
|-------------------------------------|---------------------------------------|
|
|  T        T        T        T          T        T        T        T
|  E  E  E  E  E  E  E  E  E  E  E  E    E  E  E  E  E  E  E  E  E  E  E  E
|-27p23p20-27p23p20-28p23p20-28p23p20-|-28p23p20-28p23p20-27p23p20-27p23p20---|
|-------------------------------------|---------------------------------------|
|-------------------------------------|---------------------------------------|
|-------------------------------------|---------------------------------------|
|-------------------------------------|---------------------------------------|
|-------------------------------------|---------------------------------------|


                    C5 F5                           Bb5
   Q     E  Q.       Q.       E  Q       H           Q     Q.       Q.
|-------------------------------------|-------------------------------------|
|-------------------------------------|-------------------------------------|
|--------------------5----------------|-------------------------------------|
|-----------5--------3----------------|--------------------3--------3-------|
|-----------3-------------------------|--------------------1--------1-------|
|-------------------------------------|-------------------------------------|
|
| Gtr IV
|  T        T        T        T          T        T        T        T
|  E  E  E  E  E  E  E  E  E  E  E  E    E  E  E  E  E  E  E  E  E  E  E  E
|-27p23p20-27p23p20-28p23p20-28p23p20-|-28p23p20-28p23p20-27p23p20-27p23p20-|
|-------------------------------------|-------------------------------------|
|-------------------------------------|-------------------------------------|
|-------------------------------------|-------------------------------------|
|-------------------------------------|-------------------------------------|
|-------------------------------------|-------------------------------------|
|
| Gtr V
|  Q     E  Q.       Q.       E  Q       H           Q     Q.       Q.
|-------------------------------------|-------------------------------------|
|-------------------------------------|-------------------------------------|
|----------12-------13----------------|-------------------12-------10-------|
|-------------------------------------|-------------------------------------|
|-------------------------------------|-------------------------------------|
|-------------------------------------|-------------------------------------|


                    C5 F5               Ab5               EbBb5
   Q     E  Q.       Q.       E  Q       H.                Q.       Q.
|-------------------------------------|---------------------------------------||
|-------------------------------------|---------------------------------------||
|--------------------5----------------|--------------------3------------------||
|-----------5--------3----------------|--------------------1--------3---------||
|-----------3-------------------------|--6--------------------------1---------||
|-------------------------------------|--4------------------------------------||
|
|  T        T        T        T          T        T        T        T
|  E  E  E  E  E  E  E  E  E  E  E  E    E  E  E  E  E  E  E  E  E  E  E  E
|-27p23p20-27p23p20-28p23p20-28p23p20-|-28p23p20-28p23p20-27p23p20-27p23p20---||
|-------------------------------------|---------------------------------------||
|-------------------------------------|---------------------------------------||
|-------------------------------------|---------------------------------------||
|-------------------------------------|---------------------------------------||
|-------------------------------------|---------------------------------------||
|
|  Q     E  Q.       Q.       E  Q       Q.       Q.       Q.       Q.
|-------------------------------------|-------------------11-------10---------||
|-------------------------------------|---------------------------------------||
|----------12-------13----------------|-13-------13---------------------------||
|-------------------------------------|---------------------------------------||
|-------------------------------------|---------------------------------------||
|-------------------------------------|---------------------------------------||


   Outro-Chorus
    (F)                         Db5         (F)                         Eb5
     PM----------------------|               PM----------------------|
     E  E  E  E  E  E  E   E  E  Q.          E  E  E  E  E  E  E   E  E  Q.
||----------------------------------------|---------------------------------------|
||o---------------------------------------|---------------------------------------|
||----------------------------------------|------------------------------3--------|
||-------------------------------6--------|------------------------------1--------|
||o------------------------------4--------|---------------------------------------|
||---1--1--1--1--1--1--1---1--1-----------|--1--1--1--1--1--1--1---1--1-----------|
|
|    E  E  E  E  E  E  E   E  E  E   E  E    E  E  E  E  E  E  E   E  E  E   E  E
||--20-------20-------20--------20--------|-20-------20-------20--------20--------|
||o----21-------21--------21--------21----|----21-------21--------21--------21----|
||--------22-------22--------22--------22-|-------22-------22--------22--------22-|
||----------------------------------------|---------------------------------------|
||o---------------------------------------|---------------------------------------|
||----------------------------------------|---------------------------------------|
|
|    H           Q     Q.        Q.          H           Q     Q.        Q.
||--------------------25--------25--------|-------------------25--------23--------|
||o---------------------------------------|---------------------------------------|
||----------------------------------------|---------------------------------------|
||----------------------------------------|---------------------------------------|
||o---------------------------------------|---------------------------------------|
||----------------------------------------|---------------------------------------|


  (F)                         Db5                             Bb5
   PM----------------------|                                             ~~~
   E  E  E  E  E  E  E   E  E  Q.         +H.                  Q.        Q.
|---------------------------------------|------------------------------------------|
|---------------------------------------|------------------------------------------|
|---------------------------------------|------------------------------------------|
|------------------------------6--------|-(6)------------------3--------[1]--------|
|------------------------------4--------|-(4)------------------1-------------------|
|--1--1--1--1--1--1--1---1--1-----------|------------------------------------------|
|
|  E  E  E  E  E  E  E   E  E  E   E  E    E   E  E  E   E  E  E   E  E  E   E  E
|-20-------20-------20--------20--------|-20--------20--------20--------20---------|
|----21-------21--------21--------21----|-----21--------21--------21--------21-----|
|-------22-------22--------22--------22-|--------22--------22--------22--------22--|
|---------------------------------------|------------------------------------------|
|---------------------------------------|------------------------------------------|
|---------------------------------------|------------------------------------------|
|
|  H           Q     Q.        Q.          Q.        Q.        Q.        Q.
|-------------------20--------21--------|-21--------21--------28--------27---------|
|---------------------------------------|------------------------------------------|
|---------------------------------------|------------------------------------------|
|---------------------------------------|------------------------------------------|
|---------------------------------------|------------------------------------------|
|---------------------------------------|------------------------------------------|


  (F)                         Db5         (F)               Eb5       F5
   PM----------------------|               PM------------|
   E  E  E  E  E  E  E   E  E  Q.          E  E  E  E  E  E  Q.        Q.
|---------------------------------------|---------------------------------------|
|---------------------------------------|---------------------------------------|
|---------------------------------------|--------------------3---------5--------|
|------------------------------6--------|--------------------1---------3--------|
|------------------------------4--------|---------------------------------------|
|--1--1--1--1--1--1--1---1--1-----------|--1--1--1--1--1--1---------------------|
|
|  E  E  E  E  E  E  E   E  E  E   E  E    E  E  E  E  E  E  E   E  E  E   E  E
|-20-------20-------20--------20--------|-20-------20-------20--------20--------|
|----21-------21--------21--------21----|----21-------21--------21--------21----|
|-------22-------22--------22--------22-|-------22-------22--------22--------22-|
|---------------------------------------|---------------------------------------|
|---------------------------------------|---------------------------------------|
|---------------------------------------|---------------------------------------|
|
|  H           Q     Q.        Q.          H           Q     Q.        Q.
|-------------------20--------21--------|-------------------18--------20--------|
|---------------------------------------|---------------------------------------|
|---------------------------------------|---------------------------------------|
|---------------------------------------|---------------------------------------|
|---------------------------------------|---------------------------------------|
|---------------------------------------|---------------------------------------|


  (F)                         Db5                             Bb5       C5
   PM----------------------|
   E  E  E  E  E  E  E   E  E  Q.          Q.        Q.        Q.        Q.
|---------------------------------------|--------------------------------------------||
|---------------------------------------|-------------------------------------------o||
|---------------------------------------|--------------------------------------------||
|------------------------------6--------|--6---------6---------3---------5-----------||
|------------------------------4--------|--4---------4---------1---------3----------o||
|--1--1--1--1--1--1--1---1--1-----------|--------------------------------------------||
|
|  E  E  E  E  E  E  E   E  E  E   E  E    E   E  E  E   E  E  E   E  E  E   E  E
|-20-------20-------20--------20--------|-20--------20--------20--------20-----------||
|----21-------21--------21--------21----|-----21--------21--------21--------21------o||
|-------22-------22--------22--------22-|--------22--------22--------22--------22----||
|---------------------------------------|--------------------------------------------||
|---------------------------------------|-------------------------------------------o||
|---------------------------------------|--------------------------------------------||
|
|  H           Q     Q.        Q.          Q.        Q.        Q.        Q.
|-------------------20--------21--------|---------------------20--------18-----------||
|---------------------------------------|-21--------21------------------------------o||
|---------------------------------------|--------------------------------------------||
|---------------------------------------|--------------------------------------------||
|---------------------------------------|-------------------------------------------o||
|---------------------------------------|--------------------------------------------||


 Outro
  (F)                                   Eb5      F5
    PM|   PM|   PM|           PM|   PM|
  E E E E E E E E E E E E   E E E E E E  E  E  E  Q.
|-------------------------|----------------------------*|
|-------------------------|----------------------------*|
|-5-----5-----6-----5-6-5-|-5-----5------3--3--3--5----*|
|---3-3---3-3---3-3-------|---3-3---3-3--1--1--1--3----*|
|-------------------------|----------------------------*|
|-------------------------|----------------------------*|
|
|                           Gtr V
| W                         H       Q    E  E  E  Q.
|-------------------------|----------------------------*|
|-------------------------|-------------16-16-16-18----*|
|-------------------------|----------------------------*|
|-------------------------|----------------------------*|
|-------------------------|----------------------------*|
|-------------------------|----------------------------*|



Duration Legend
---------------
W - whole; H - half; Q - quarter; E - 8th; S - 16th; T - 32nd; X - 64th; a - acciaccatura
+ - note tied to previous; . - note dotted; .. - note double dotted
Uncapitalized letters represent notes that are staccato (1/2 duration)
Irregular groupings are notated above the duration line
Duration letters will always appear directly above the note/fret number it represents the
duration for.  Duration letters with no fret number below them represent rests.  Multi-
bar rests are notated in the form Wxn, where n is the number of bars to rest for.  Low
melody durations appear below the staff

Tablature Legend
----------------
 h   - hammer-on
 p   - pull-off
 b   - bend
 pb  - pre-bend
 r   - bend release (if no number after the r, then release immediately)
 /\  - slide into or out of (from/to "nowhere")
 s   - legato slide
 S   - shift slide
 - natural harmonic
[n]  - artificial harmonic
n(n) - tapped harmonic
 ~   - vibrato
 tr  - trill
 T   - tap
 TP  - trem. picking
 PM  - palm muting
\n/  - tremolo bar dip; n = amount to dip
 \n  - tremolo bar down
 n/  - tremolo bar up
/n\  - tremolo bar inverted dip
 =   - hold bend; also acts as connecting device for hammers/pulls
 <> - volume swell (louder/softer)
 x   - on rhythm slash represents muted slash
 o   - on rhythm slash represents single note slash

Misc Legend
-----------
 |  - bar
||  - double bar
||o - repeat start
o|| - repeat end
*|  - double bar (ending)
 :  - bar (freetime)
 $  - Segno
 &  - Coda
Tempo markers -  = BPM(8/16=s8/s16), where s8 = swing 8ths, s16 = swing 16ths

Tap to rate this tab
# A B C D E F G H I J K L M N O P Q R S T U V W X Y Z