Song name
# A B C D E F G H I J K L M N O P Q R S T U V W X Y Z

Nightwish - Bye Bye Beautifull tab

Band: Nightwish

Song: Bye Bye Beautifull          Tabbed by Lionguitar

Album: Dark Passion Play       e-mail adress: MegSelvVel@hotmail.com

It was a hard song to tab, but I think the most of it sounds just like emppu´s guitar 
Look after mistakes.

00.04                          00.13
x3 Intro                      x1
d --------------------------- | ----------------------------|
a --------------------------- | ----------------------------|
f --------------------------- | ----------------------------|
c --------------------------- | ----------------------------|
g --------------------------- | ----------------------------|
d -2-2-2-2-2-2-2--2-2--2-2-2- | -0-0-0-0-0-0-0--0-0--0-0-0--|
   . . . . . . .  . .  . . . . . . . . . .  . .  . . .

00.15
x3 Riff 1
d --------------------------|
a --------------------------|
f --------------------------|
c -2--4-4-4-4--4-4--2-7-(2)-|
g -2--4-4-4-4--4-4--2-7-(2)-|
d -0--2-2-2-2--2-2--0-5-(0)-|

00.26
Riff 2
d --------------------------|
a --------------------------|
f --------------------------|
c -5\4-2--------2-----------|
g ------5\4-5\4---5\4-------|
d --------------------------|

do the verse two times
01.00                 
x3 Verse              x1
d ------------------ |  ------------------------------|
a ------------------ |  ------------------------------|
f ------------------ |  ------------------------------|
c -4/7-2-4-4-4-4-4-- |  -2-2-2--2-2--2--7-7--7-7-7-7--|
g -4/7-2-4-4-4-4-4-- |  -2-2-2--2-2--2--7-7--7-7-7-7--|
d -2/5-0-2-2-2-2-2-- |  -0-0-0--0-0--0--5-5--5-5-5-5--|
                                             . . . .
01.26
x2 Riff 3           x1
d -----------------|------|
a -----------------|------|
f -----------------|-2----|
c -5\4-5\4-5\4-5\4-|-2-2--|
g -5\4-5\4-5\4-5\4-|-0-2--|
d -3\2-3\2-3\2-3\2-|---0--|


Riff 1

Riff 2

01.47
Riff 4
d --------------------------------------------------|
a --------------------------------------------------|
f --------------------------------------------------|
c -------------------------7-7---------4-4-4-4-5-5--|
g -------------------------7-7---------4-4-4-4-5-5--|
d -2-2-2-2-0-0-0-0-2-2-2-2-5-5-0-0-0-0-2-2-2-2-3-3--|

d --------------------------------------------------|
a --------------------------------------------------|
f --------------------------------------------------|
c ---------2-2---------7-7---------4----------------|
g ---------2-2---------7-7---------4----------------|
d -2-2-2-2-0-0-2-2-2-2-5-5-0-0-0-0-2----------------|

02.16
Verse

02.42
Riff 3:
x2                  x1
d -----------------|------|
a -----------------|------|
f -----------------|-2----|
c -5\4-5\4-5\4-5\4-|-2-2--|
g -5\4-5\4-5\4-5\4-|-0-2--|
d -3\2-3\2-3\2-3\2-|---0--|

02.50
riff 5
x4
d --------------------------|
a --------------------------|
f -----------------2-2------|
c -5\4-5\4-5\4-5\4-2-2-2-2--|
g -5\4-5\4-5\4-5\4-0-0-2-2--|
d -3\2-3\2-3\2-3\2-----0-0--|

03.03
Riff 6
x4                           x1
d --------------------------|------------------|
a --------------------------|------------------|
f --------------------------|------------------|
c -3\2-3\2-3\2-3\2-2-2-2-2--|-3\2-3\2-3\2-3\2--|
g -3\2-3\2-3\2-3\2-2-2-2-2--|-3\2-3\2-3\2-3\2--|
d -1\0-1\0-1\0-1\0-0-0-0-0--|-1\0-1\0-1\0-1\0--|
                   . . . .

03.32
Verse

Riff 7
03.58
f -----------------|------------------|
a -----------------|------------------|
f -----------------|------------------|
c -5\4-5\4-5\4-5\4-|-5\4-5\4-5\4-3\2--|
g -5\4-5\4-5\4-5\4-|-5\4-5\4-5\4-3\2--|
d -3\2-3\2-3\2-3\2-|-3\2-3\2-3\2-5\0--|

x2
d ------------------|
a ------------------|
f ------------------|
c -5\4-5\4-5\4-5\4--|
g -5\4-5\4-5\4-5\4--|
d -3\2-3\2-3\2-3\2--|

FIN!!
Tap to rate this tab
# A B C D E F G H I J K L M N O P Q R S T U V W X Y Z