Nihilist - Metal And Mayhem tab

Hey!
This is the tab for the awesome song Metal and Mayhem by Nihilist of the Blood Portraits album!
This song has been requested a lot so I started tabbing it.
This is my first tab, so my apologies for mistakes, didn't do the solo and after that
Added some lyrics between brackets so it's easier to follow.
Special thanks to the youtuber thelaw003, his cover helped me make mine. 
Be sure to check his out!
                                                    


                  Intro
e]------------------------------------------------------------------------|
B]------------------------------------------------------------------------|
G]------------------------------------------------------------------------|
D]-----------------------------------------------------------------9--9---|
A]---10--------10---------10---------10----------9---------9--------------|
E]--------12---------12---------12---------12---------10-------10---------|x3
slightly muted

e]---------------------------------------------------------|
B]---------------------------------------------------------|
G]---------------------------------------------------------|
D]---------------------------------------------------------|
A]10----10-----10----10-----9----9---------------------2---|
E]----8-----8-----8-----8------7----7------8-7----3-2--0---|x1
slightly muted


e]------------------------------------------------------------------------|
B]------------------------------------------------------------------------|
G]------------------------------------------------------------------------|
D]-------------------------------------------------------------------9--9-|
A]---10--------10---------10---------10----------9----------9-------------|
E]--------12---------12---------12---------12---------10---------10-------|x3
slightly muted

e]-------------------------------------------------------------|
B]-------------------------------------------------------------|
G]-------------------------------------------------------------|
D]-------------------------------------------------------------|
A]10-----10----10-----10----9------9-----------------------2---|
E]----8-----8-----8------8------7-----7-----8-7-------3-2--0---|x1
slightly muted                                             ring

_______________________________________
(Ladies and gentlemen, fucking Nihilist!)

  ___                               Verse
 /e]----------------------------------------------------------------|
| B]----------------------------------------------------------------|
| G]----------------------------------------------------------------|
| D]--------------------------------------------------5-------------|
| A]--2------------------------------------------2----3-------------|
| E]--0---0000000000000000000000000000000000000--0-0----------------|
|
|
|e]-----------------------------------------------------------------|
|B]-----------------------------------------------------------------|
|G]-----------------------------------------------------------------|
|D]-----------------------------------------------------------------|
|A]--2-------------------------------------------9---8---7----6-5---|
|E]--0---0000000000000000000000000000000000000---7---6---5----4-3---|
\___  x4                          ((second time) turn up the volume and...)
                                                               
 ____
/e]----------------------------------------------------------|
|B]----------------------------------------------------------|
|G]-------------------------------------------------5--------|
|D]-------------------------------------------------3--------|
|A]-2--222222222222222222222222222222222222----2--0----------|
|E]-0------------------------------------------0-------------|
|
|
|
|e]-------------------------------------------------------------------|
|B]-------------------------------------------------------------------|
|G]------------------------------------------------------5------------|
|D]------------------------------------------------------3--5---------|
|A]---2---222222222222222222222222222222222222----2--0------3--5--7--2|
|E]---0-------------------------------------------0------------3--5--0|
\_____  x4


                             Chorus

e]------------------------------------------------------|
B]------------------------------------------------------|
G]---2-------2-----2-----2------------------------------|
D]---2-------2-----2-----2--------5---------------------|
A]---0-------0--0--0--0--0--------5-----5-----5-----5---|
E]--------------------------------3-----3--3--3--3--3---|
     ring       pm    pm         ring      pm   pm        
(It's metal and mayhem!             I can smell it in the air)

e]--------------------------------------------------------|
B]--------------------------------------------------------|
G]--------------------------------------------------------|
D]---------3----------------------------2-----------------|
A]---------3-------3-----3-----3--------2----2-----2-----2|
E]---------1-------1--1--1--1--1--------0----0--0--0--0--0|
           ring       pm    pm        ring      pm   pm         

 ____
/e]--------------------------------------------------------|
|B]--------------------------------------------------------|
|G]--------------------------------------------------10bend|
|D]-11----11---------11--------10-----10------10-----------|
|A]---13----13---------13---------11----11------11---------|
|E]--------------------------------------------------------|
|    (Tune up your guitars     and warm up the amps! )
|
|e]-------------------------------------------------------------|
|B]-------------------------------------------------------------|
|G]-------------------------------------------------------------|
|D]--11---11------11---------10---10------10----10\7-10-9-7-9-7-|
|A]-----9----9-------9----------8----8-------8------------------|
|E]-------------------------------------------------------------|
\_______ x2


                   Bridge

e]-------------------------------------------------------|
B]-------------------------------------------------------|
G]-------------------------------------------------------|
D]-------------------------------------------------------|
A]-5-----5-----4-----4-------5-----5------3-2---------2--|
E]----7-----7-----5------5------3-----3-------3--2----0--|

(...Shooooooooooooooooooooooooooooooooooooooooooooow!)

                     Verse
                     Chorus



                   Solo should be here
                   Rest, working on the pinched harmonic part etc.
                   Sorry again for not tabbing everything
Tap to rate this tab
 
# A B C D E F G H I J K L M N O P Q R S T U V W X Y Z