Song name
# A B C D E F G H I J K L M N O P Q R S T U V W X Y Z

Nils - Dreamin tab

Help us improve GuitareTab! Take a short survey!
-------------------------------------------------------------------------------
			     Dreamin' - Nils
www.nilsmusic.com
www.myspace.com/nilsguitar
-------------------------------------------------------------------------------
Tabbed by: JimBonJovi
Email: blackburn_rover_jim@hotmail.co.uk

Tuning: Standard

For anyone into Smooth Jazz Guitar, this is off of Nils' second album "Ready to Play".

Intro/Chorus  -  (Really warm/soft tone)

(0:05-0:11)     (0:13)           (0:20-0:28)
E|-------------|---------------|-------------------------------------------------------|
B|-------------|----20\8-------|----6/8--10--11b--10--8--------------------------------|
G|--12~~--12---|---------------|----x/x--x---x----x---x---5\3/5\3/5/7--3---------------|
D|-------------|---------------|----3/5--7---8b---7---5---x-x-x-x-x-x--x---3/5~--------|
A|-------------|---------------|--------------------------3\1/3\1/3/5--1-----x---------|
E|-------------|---------------|-------------------------------------------1/3~--------|
  Keyboards in bckgrnd


  (0:30-0:37) Played Fairly quickly
e|-------------------------------------------------|
B|----6/8--10--11b--10--8/15~~---10/11\10\8\6/8~~--|
G|----x/x--x---x----x---x-x------x--x---x---x-x----|
D|----3/5--7---8b---7---5/12~~---7-/8-\-7\5\3/5~~--|
A|-------------------------------------------------|
E|-------------------------------------------------|


Any questions or comments? Please feel free to get a hold of me.


| /  slide up
| \  slide down
| h  hammer-on
| p  pull-off
| ~  vibrato
| +  harmonic
| x  Mute note
Related for Dreamin tab