Song name
# A B C D E F G H I J K L M N O P Q R S T U V W X Y Z

Nine Inch Nails - Head Down tab

Help us improve GuitareTab! Take a short survey!
Band: Nine Inch Nails
Album: The Slip
Song: Head Down

Note:There are pretty much 3 variations of the song.Slide is from 9 up the fretboard 
3 and let go on the open parts. then for the part for the 3 slide up open the fret 3

E-------------------------------------------------------------------------|
B-------------------------------------------------------------------------|
G-------------------------------------------------------------------------|
D- 9slide up-0 9slide up-0 9slide up-0--3 9slide up-0 9slide up-0--3------|
A- 9slide up-0 9slide up-0 9slide up-0--3 9slide up-0 9slide up-0--3------|
A#- 0--------0 0---------0 0------------0 0---------0 0------------0------|

then the chords for " And this is not my face" part
E--9-9-9-9-9-9-9-9-9-9-9-9-9-9-9-11-11-11-11-11-11-11-11-11-11-11-11-11-11-11-|
B--9-9-9-9-9-9-9-9-9-9-9-9-9-9-9-11-11-11-11-11-11-11-11-11-11-11-11-11-11-11-|
G--9-9-9-9-9-9-9-9-9-9-9-9-9-9-9-11-11-11-11-11-11-11-11-11-11-11-11-11-11-11-|
D--9-9-9-9-9-9-9-9-9-9-9-9-9-9-9-11-11-11-11-11-11-11-11-11-11-11-11-11-11-11-|
A--7-7-7-7-7-7-7-7-7-7-7-7-7-7-7-8-8-8-8-8-8-8-8-8-8-8-8-8-8-8----------------|
A#-0-0-0-0-0-0-0-0-0-0-0-0-0-0-0-0-0-0-0-0-0-0-0-0-0-0-0-0-0-0----------------|
Related for Head Down tab