Song name
# A B C D E F G H I J K L M N O P Q R S T U V W X Y Z

Nine Inch Nails - Discipline tab

Help us improve GuitareTab! Take a short survey!
#----------------------------------PLEASE NOTE---------------------------------#
#This file is the author's own work and represents their interpretation of the #
#song. You may only use this file for private study, scholarship, or research. #
#------------------------------------------------------------------------------#

DISCIPLINE
As recorded by Nine Inch Nails
(From the 2008 Album THE SLIP)

Transcribed by Mitchell Gardner
	

Words and Music by Trent Reznor

Gtr I (E A D G B E) - 'Gtr. I - Heavy Dist. (Gtr.II)'
Gtr II (E A D G B E) - 'Gtr. I Distortion'
Gtr III (E A D G B E) - 'Gtr. II - Heavy Dist.'
Gtr IV (E A D G B E) - 'Piano'
Gtr V (E A D G B E) - 'Marimba'

 Intro
  Rock Q=122
  N.C.
 4/4
  Gtrs I, II
  Wx4
|--------|
|--------|
|--------|
|--------|
|--------|
|--------|


  N.C.
  E E E  E E  E Q    E E E E E E Q    E E E  E +E   E Q    E E E E E E E E
|------------------|----------------|--------------------|------------------|
|------------------|----------------|--------------------|------------------|
|------------------|----------------|--------------------|------------------|
|------------------|----------------|--------------------|------------------|
|-------/9-9\-4-6--|-6p4-6-6-6p4-6--|-------/9-(9)\-4-6--|-6p4-6-6-6p4-6-6--|
|-4-4-4------------|----------------|-4-4-4--------------|------------------|


  N.C.
  E E E  E +E   E Q    E E Q  E E Q
|--------------------|---------------|
|--------------------|---------------|
|--------------------|---------------|
|--------------------|---------------|
|-------/9-(9)\-4-6--|-6p4-6--6p4-6--|
|-4-4-4--------------|---------------|


                                       ~
  E E E  E +E   E Q    E E E E E   +E  Q
|--------------------|---------------------||
|--------------------|---------------------||
|--------------------|---------------------||
|--------------------|---------------------||
|-------/9-(9)\-4-6--|-6p4-6-6-6b7r(6)-5---||
|-4-4-4--------------|---------------------||


 Verse I
  N.C.
  E E E  E +E   E Q    E E Q  E E Q    E E E  E +E   E Q    E E Q  E E Q
|--------------------|---------------|--------------------|----------------|
|--------------------|---------------|--------------------|----------------|
|--------------------|---------------|--------------------|----------------|
|--------------------|---------------|--------------------|----------------|
|-------/9-(9)\-4-6--|-6p4-6--6p4-6--|-------/9-(9)\-4-6--|-6p4-6--6p4-6---|
|-4-4-4--------------|---------------|-4-4-4--------------|----------------|


  N.C.
  E E E  E +E   E Q    E E Q  E E Q
|--------------------|---------------|
|--------------------|---------------|
|--------------------|---------------|
|--------------------|---------------|
|-------/9-(9)\-4-6--|-6p4-6--6p4-6--|
|-4-4-4--------------|---------------|


  E E E  E +E   E Q    E E Q  E E E   +E
|--------------------|---------------------|
|--------------------|---------------------|
|--------------------|---------------------|
|--------------------|---------------------|
|-------/9-(9)\-4-6--|-6p4-6--6p4-6b7r(6)--|
|-4-4-4--------------|---------------------|


  N.C.
  E E E  E +E   E Q    E E Q  E E Q    E E E  E +E   E Q    E E Q  E E Q
|--------------------|---------------|--------------------|----------------|
|--------------------|---------------|--------------------|----------------|
|--------------------|---------------|--------------------|----------------|
|--------------------|---------------|--------------------|----------------|
|-------/9-(9)\-4-6--|-6p4-6--6p4-6--|-------/9-(9)\-4-6--|-6p4-6--6p4-6---|
|-4-4-4--------------|---------------|-4-4-4--------------|----------------|


  N.C.
  E E E  E +E   E Q    E E Q  E E Q    E E E  E +E   E Q    E E Q  E E Q
|--------------------|---------------|--------------------|----------------||
|--------------------|---------------|--------------------|----------------||
|--------------------|---------------|--------------------|----------------||
|--------------------|---------------|--------------------|----------------||
|-------/9-(9)\-4-6--|-6p4-6--6p4-6--|-------/9-(9)\-4-6--|-6p4-6--6p4-6---||
|-4-4-4--------------|---------------|-4-4-4--------------|----------------||


 Chorus
  N.C.
  E E E  E +E   E Q    E E E E E E Q    E E E  E +E   E Q    E E Q  E E Q
|--------------------|----------------|--------------------|----------------|
|--------------------|----------------|--------------------|----------------|
|--------------------|----------------|--------------------|----------------|
|--------------------|----------------|--------------------|----------------|
|-------/9-(9)\-4-6--|-6p4-6-6-6p4-6--|-------/9-(9)\-4-6--|-6p4-6--6p4-6---|
|-4-4-4--------------|----------------|-4-4-4--------------|----------------|


  N.C.
  E E E  E +E   E Q    E E Q  E E Q
|--------------------|---------------|
|--------------------|---------------|
|--------------------|---------------|
|--------------------|---------------|
|-------/9-(9)\-4-6--|-6p4-6--6p4-6--|
|-4-4-4--------------|---------------|


                                       ~
  E E E  E +E   E Q    E E E E E   +E  Q
|--------------------|---------------------||
|--------------------|---------------------||
|--------------------|---------------------||
|--------------------|---------------------||
|-------/9-(9)\-4-6--|-6p4-6-6-6b7r(6)-5---||
|-4-4-4--------------|---------------------||


 Pre-Verse
  N.C.
  E E E  E +E   E Q    E E Q  E E Q    E E E  E +E   E Q    E E Q  E E Q
|--------------------|---------------|--------------------|----------------||
|--------------------|---------------|--------------------|----------------||
|--------------------|---------------|--------------------|----------------||
|--------------------|---------------|--------------------|----------------||
|-------/9-(9)\-4-6--|-6p4-6--6p4-6--|-------/9-(9)\-4-6--|-6p4-6--6p4-6---||
|-4-4-4--------------|---------------|-4-4-4--------------|----------------||


 Verse II
  N.C.
   W              W            W              W
|--------------|------------|--------------|------------------|
|--------------|------------|--------------|------------------|
|--------------|------------|--------------|------------------|
|--------------|------------|--------------|------------------|
|--------------|------------|--------------|------------------|
|--------------|------------|--------------|------------------|
|
| Gtr IV
|  E E H.        +W            E E H.        +E  E E E +H
|--------------|------------|--------------|-------0----------|
|------4-------|-(4)--------|------4-------|-(4)-----4-(4)----|
|----6---------|------------|----6---------|------------------|
|-10-----------|------------|-10-----------|-----1------------|
|--------------|------------|--------------|------------------|
|--------------|------------|--------------|------------------|


  N.C.
                                                                       ~
   W              W            E E E   E +E   E Q     E  E E E E   +E  Q
|--------------|------------|----------------------|-----------------------|
|--------------|------------|----------------------|-----------------------|
|--------------|------------|----------------------|-----------------------|
|--------------|------------|----------------------|-----------------------|
|--------------|------------|---------/9-(9)\-4-6--|--6p=4-6-6-6b7r(6)-5---|
|--------------|------------|--4-4-4---------------|-----------------------|
|
|  E E H.        +W            E E H.                +W
|--------------|------------|----------------------|-----------------------|
|------4-------|-(4)--------|------4---------------|-(4)-------------------|
|----6---------|------------|----6-----------------|-----------------------|
|-10-----------|------------|-10-------------------|-----------------------|
|--------------|------------|----------------------|-----------------------|
|--------------|------------|----------------------|-----------------------|


  N.C.
  Gtrs I, II, III
  E E E  E +E   E Q    E E Q  E E Q    E E E  E +E   E Q    E E Q  E E Q
|--------------------|---------------|--------------------|----------------|
|--------------------|---------------|--------------------|----------------|
|--------------------|---------------|--------------------|----------------|
|--------------------|---------------|--------------------|----------------|
|-------/9-(9)\-4-6--|-6p4-6--6p4-6--|-------/9-(9)\-4-6--|-6p4-6--6p4-6---|
|-4-4-4--------------|---------------|-4-4-4--------------|----------------|
|
| W                    W               W                    W
|--------------------|---------------|--------------------|----------------|
|--------------------|---------------|--------------------|----------------|
|--------------------|---------------|--------------------|----------------|
|--------------------|---------------|--------------------|----------------|
|--------------------|---------------|--------------------|----------------|
|--------------------|---------------|--------------------|----------------|


  N.C.
   E E E   E +E   E Q     E  E Q    E  E  Q
|----------------------|----------------------|
|----------------------|----------------------|
|----------------------|----------------------|
|----------------------|----------------------|
|---------/9-(9)\-4-6--|--6p=4-6----6p=4--6---|
|--4-4-4---------------|----------------------|
|
|  E E H.                +Q    E E +E  E +Q
|----------------------|-------0--------------|
|------4---------------|-(4)-----4-(4)--------|
|----6-----------------|---------------6-(6)--|
|-10-------------------|----------------------|
|----------------------|----------------------|
|----------------------|----------------------|


   E E E   E +E   E Q     E  E Q  E E Q
|----------------------|------------------||
|----------------------|------------------||
|----------------------|------------------||
|----------------------|------------------||
|---------/9-(9)\-4-6--|--6p=4-6--6p4-6---||
|--4-4-4---------------|------------------||
|
|  E E H.                +W
|----------------------|------------------||
|------4---------------|-(4)--------------||
|----6-----------------|------------------||
|-10-------------------|------------------||
|----------------------|------------------||
|----------------------|------------------||


 Chorus
  N.C.
  Gtrs I, II
  E E E  E +E   E Q    E E Q  E E Q    E E E  E +E   E Q    E E Q  E E Q
|--------------------|---------------|--------------------|----------------|
|--------------------|---------------|--------------------|----------------|
|--------------------|---------------|--------------------|----------------|
|--------------------|---------------|--------------------|----------------|
|-------/9-(9)\-4-6--|-6p4-6--6p4-6--|-------/9-(9)\-4-6--|-6p4-6--6p4-6---|
|-4-4-4--------------|---------------|-4-4-4--------------|----------------|


  N.C.
  E E E  E +E   E Q    E E Q  E E Q
|--------------------|---------------|
|--------------------|---------------|
|--------------------|---------------|
|--------------------|---------------|
|-------/9-(9)\-4-6--|-6p4-6--6p4-6--|
|-4-4-4--------------|---------------|


                                       ~
  E E E  E +E   E Q    E E E E E   +E  Q
|--------------------|---------------------|
|--------------------|---------------------|
|--------------------|---------------------|
|--------------------|---------------------|
|-------/9-(9)\-4-6--|-6p4-6-6-6b7r(6)-5---|
|-4-4-4--------------|---------------------|


  (B#5)  (C#5)      (D#5)     (E5)    (D#5(C#5)
  Gtrs I, II
  E  E E  E  +E   E Q      E  E  Q    E E Q
|-----------------------|---------------------|
|-----------------------|---------------------|
|-----------------------|---------------------|
|-----------------------|---------------------|
|--------/9--(9)\-4-6---|--6p=4--6----6p4-6---|
|-4--4-4----------------|---------------------|
|
| Gtr IV
| E  E E  E   E   E E E    E  E +E  E E E E E
|-----------------------|---------------------|
|-----------------------|---------------------|
|-5----5--6-------6-8---|--8--9-(9)---8---6---|
|----6--------6-------6-|-----------6---6---6-|
|-3-------4---------6---|-(6)-7-(7)---6---4---|
|-----------------------|---------------------|
  Q.      Q.        Q     +E  E +Q    Q   Q


  (B#5)  (C#5)      (D#5)     (E5)    (D#5(C#5)
  E  E E  E  +E   E Q      E  E  Q    E E Q
|-----------------------|----------------------|
|-----------------------|----------------------|
|-----------------------|----------------------|
|-----------------------|----------------------|
|--------/9--(9)\-4-6---|--6p=4--6----6p4-6----|
|-4--4-4----------------|----------------------|
|
| E  E E  E   E   E E E    E  E  E  E E E E E
|-----------------------|----------------------|
|-----------------------|----------------------|
|-5----5--6-------6-8---|--8--9-----9-8---6----|
|----6--------6-------6-|--------6------6---6--|
|-3-------4---------6---|-(6)-7-(7)---6---4----|
|-----------------------|----------------------|
  Q.      Q.        Q     +E  E +Q    Q   Q


  (B#5)  (C#5)      (D#5)     (E5)    (D#5(C#5)
  E  E E  E  +E   E Q      E  E  Q    E E Q
|-----------------------|---------------------|
|-----------------------|---------------------|
|-----------------------|---------------------|
|-----------------------|---------------------|
|--------/9--(9)\-4-6---|--6p=4--6----6p4-6---|
|-4--4-4----------------|---------------------|
|
| E  E E  E   E   E E E    E  E  E  E E E E E
|-----------------------|---------------------|
|-----------------------|---------------------|
|-5----5--6-------6-8---|--8--9--8----8---6---|
|----6--------6-------6-|-----------6---6---6-|
|-3-------4---------6---|-(6)-7-(7)---6---4---|
|-----------------------|---------------------|
  Q.      Q.        Q     +E  E +Q    Q   Q


  (B#5)  (C#5)      (D#5)     (E5)    (D#5(C#5)
  E  E E  E  +E   E Q      E  E  Q    E E Q
|-----------------------|----------------------||
|-----------------------|----------------------||
|-----------------------|----------------------||
|-----------------------|----------------------||
|--------/9--(9)\-4-6---|--6p=4--6----6p4-6----||
|-4--4-4----------------|----------------------||
|
| E  E E  E   E   E E E    E  E  E  E E E E E
|-----------------------|----------------------||
|-----------------------|----------------------||
|-5----5--6-------6-8---|--8--9--8----8---6----||
|----6--------6-------6-|-----------6---6---6--||
|-3-------4---------6---|-(6)-7-(7)---6---4----||
|-----------------------|----------------------||
  Q.      Q.        Q     +E  E +Q    Q   Q


 Interlude
  N.C.
  Gtr IV
   E E H.        +W            E E H.        +E  E E E +H
|--------------|------------|--------------|-------0----------|
|------4-------|-(4)--------|------4-------|-(4)-----4-(4)----|
|----6---------|------------|----6---------|------------------|
|-10-----------|------------|-10-----------|-----1------------|
|--------------|------------|--------------|------------------|
|--------------|------------|--------------|------------------|


  N.C.
   E E H.        +W           W          W
|--------------|------------|----------|------|
|------4-------|-(4)--------|----------|------|
|----6---------|------------|----------|------|
|-10-----------|------------|----------|------|
|--------------|------------|----------|------|
|--------------|------------|----------|------|


  (B#5)  (C#5)  (D#5)     (E5)    (D#5(C#5)
  E  E E E  E E E E    E  E +E  E E E E E
|-------------------|---------------------|
|-------------------|---------------------|
|-5----5-6----6-8---|--8--9-(9)---8---6---|
|----6------6-----6-|-----------6---6---6-|
|-3------4------6---|-(6)-7-(7)---6---4---|
|-------------------|---------------------|
  Q.     Q.     Q     +E  E +Q    Q   Q


  (B#5)  (C#5)  (D#5)     (E5)    (D#5(C#5)
  E  E E E  E E E E    E  E  E  E E E E E
|-------------------|----------------------|
|-------------------|----------------------|
|-5----5-6----6-8---|--8--9-----9-8---6----|
|----6------6-----6-|--------6------6---6--|
|-3------4------6---|-(6)-7-(7)---6---4----|
|-------------------|----------------------|
  Q.     Q.     Q     +E  E +Q    Q   Q


  (B#5)  (C#5)  (D#5)     (E5)    (D#5(C#5)
  E  E E E  E E E E    E  E  E  E E E E E
|-------------------|---------------------|
|-------------------|---------------------|
|-5----5-6----6-8---|--8--9--8----8---6---|
|----6------6-----6-|-----------6---6---6-|
|-3------4------6---|-(6)-7-(7)---6---4---|
|-------------------|---------------------|
  Q.     Q.     Q     +E  E +Q    Q   Q


  (B#5)  (C#5)  (D#5)     (E5)    (D#5(C#5)
  E  E E E  E E E E    E  E  E  E E E E E
|-------------------|----------------------|
|-------------------|----------------------|
|-5----5-6----6-8---|--8--9--8----8---6----|
|----6------6-----6-|-----------6---6---6--|
|-3------4------6---|-(6)-7-(7)---6---4----|
|-------------------|----------------------|
  Q.     Q.     Q     +E  E +Q    Q   Q


    (B#5)  (C#5)  (D#5)     (E5)    (D#5(C#5)
    E  E E E  E E E E    E  E +E  E E E E E
||--------------------|---------------------|
||o-------------------|---------------------|
||--5----5-6----6-8---|--8--9-(9)---8---6---|
||-----6------6-----6-|-----------6---6---6-|
||o-3------4------6---|-(6)-7-(7)---6---4---|
||--------------------|---------------------|
    Q.     Q.     Q     +E  E +Q    Q   Q


  (B#5)  (C#5)  (D#5)     (E5)    (D#5(C#5)
  E  E E E  E E E E    E  E  E  E E E E E  3x
|-------------------|----------------------||
|-------------------|---------------------o||
|-5----5-6----6-8---|--8--9-----9-8---6----||
|----6------6-----6-|--------6------6---6--||
|-3------4------6---|-(6)-7-(7)---6---4---o||
|-------------------|----------------------||
  Q.     Q.     Q     +E  E +Q    Q   Q


  (B#5)  (C#5)  (D#5)     (E5)    (D#5(C#5)
  Gtrs I, II
  W                    W
|-------------------|---------------------|
|-------------------|---------------------|
|-------------------|---------------------|
|-------------------|---------------------|
|-------------------|---------------------|
|-------------------|---------------------|
|
| Gtr IV
| E  E E E  E E E E    E  E +E  E E E E E
|-------------------|---------------------|
|-------------------|---------------------|
|-5----5-6----6-8---|--8--9-(9)---8---6---|
|----6------6-----6-|-----------6---6---6-|
|-3------4------6---|-(6)-7-(7)---6---4---|
|-------------------|---------------------|
  Q.     Q.     Q     +E  E +Q    Q   Q


  (B#5)  (C#5)      (D#5)     (E5)    (D#5)   (C#5)
                                              ~
  E  E E  E  +E   E Q      E  E  E  E E   +E  Q
|-----------------------|--------------------------||
|-----------------------|--------------------------||
|-----------------------|--------------------------||
|-----------------------|--------------------------||
|--------/9--(9)\-4-6---|--6p=4--6--6-6b7r(6)-5----||
|-4--4-4----------------|--------------------------||
|
| E  E E  E   E   E E E    E  E  E  E E    E  E E
|-----------------------|--------------------------||
|-----------------------|--------------------------||
|-5----5--6-------6-8---|--8--9-----9-8-------6----||
|----6--------6-------6-|--------6---------6----6--||
|-3-------4---------6---|-(6)-7-(7)---6-------4----||
|-----------------------|--------------------------||
  Q.      Q.        Q     +E  E +Q    Q       Q


   Out-Chorus
    (B#5)  (C#5)      (D#5)     (E5)    (D#5(C#5)
    E  E E  E  +E   E Q      E  E  Q    E E Q
||------------------------|---------------------|
||o-----------------------|---------------------|
||------------------------|---------------------|
||------------------------|---------------------|
||o--------/9--(9)\-4-6---|--6p=4--6----6p4-6---|
||--4--4-4----------------|---------------------|
|
|   E  E E  E   E   E E E    E  E +E  E E E E E
||------------------------|---------------------|
||o-----------------------|---------------------|
||--5----5--6-------6-8---|--8--9-(9)---8---6---|
||-----6--------6-------6-|-----------6---6---6-|
||o-3-------4---------6---|-(6)-7-(7)---6---4---|
||------------------------|---------------------|
    Q.      Q.        Q     +E  E +Q    Q   Q


  (B#5)  (C#5)      (D#5)     (E5)    (D#5(C#5)
  E  E E  E  +E   E Q      E  E  Q    E E Q
|-----------------------|----------------------||
|-----------------------|---------------------o||
|-----------------------|----------------------||
|-----------------------|----------------------||
|--------/9--(9)\-4-6---|--6p=4--6----6p4-6---o||
|-4--4-4----------------|----------------------||
|
| E  E E  E   E   E E E    E  E  E  E E E E E
|-----------------------|----------------------||
|-----------------------|---------------------o||
|-5----5--6-------6-8---|--8--9-----9-8---6----||
|----6--------6-------6-|--------6------6---6--||
|-3-------4---------6---|-(6)-7-(7)---6---4---o||
|-----------------------|----------------------||
  Q.      Q.        Q     +E  E +Q    Q   Q


  (B#5)  (C#5)      (D#5)     (E5)    (D#5(C#5)
  Gtrs I, II, III
  E  E E  E  +E   E Q      E  E  Q    E E Q
|-----------------------|---------------------|
|-----------------------|---------------------|
|-----------------------|---------------------|
|-----------------------|---------------------|
|--------/9--(9)\-4-6---|--6p=4--6----6p4-6---|
|-4--4-4----------------|---------------------|
|
| Gtr IV
| E  E E  E   E   E E E    E  E +E  E E E E E
|-----------------------|---------------------|
|-----------------------|---------------------|
|-5----5--6-------6-8---|--8--9-(9)---8---6---|
|----6--------6-------6-|-----------6---6---6-|
|-3-------4---------6---|-(6)-7-(7)---6---4---|
|-----------------------|---------------------|
  Q.      Q.        Q     +E  E +Q    Q   Q


  (B#5)  (C#5)      (D#5)     (E5)    (D#5(C#5)
  E  E E  E  +E   E Q      E  E  Q    E E Q
|-----------------------|----------------------|
|-----------------------|----------------------|
|-----------------------|----------------------|
|-----------------------|----------------------|
|--------/9--(9)\-4-6---|--6p=4--6----6p4-6----|
|-4--4-4----------------|----------------------|
|
| E  E E  E   E   E E E    E  E  E  E E E E E
|-----------------------|----------------------|
|-----------------------|----------------------|
|-5----5--6-------6-8---|--8--9-----9-8---6----|
|----6--------6-------6-|--------6------6---6--|
|-3-------4---------6---|-(6)-7-(7)---6---4----|
|-----------------------|----------------------|
  Q.      Q.        Q     +E  E +Q    Q   Q


  (B#5)  (C#5)      (D#5)     (E5)    (D#5(C#5)
  E  E E  E  +E   E Q      E  E  Q    E E Q
|-----------------------|---------------------|
|-----------------------|---------------------|
|-----------------------|---------------------|
|-----------------------|---------------------|
|--------/9--(9)\-4-6---|--6p=4--6----6p4-6---|
|-4--4-4----------------|---------------------|
|
| E  E E  E   E   E E E    E  E +E  E E E E E
|-----------------------|---------------------|
|-----------------------|---------------------|
|-5----5--6-------6-8---|--8--9-(9)---8---6---|
|----6--------6-------6-|-----------6---6---6-|
|-3-------4---------6---|-(6)-7-(7)---6---4---|
|-----------------------|---------------------|
  Q.      Q.        Q     +E  E +Q    Q   Q


  (B#5)  (C#5)      (D#5)     (E5)    (D#5(C#5)
  E  E E  E  +E   E Q      E  E  Q    E E Q
|-----------------------|----------------------||
|-----------------------|----------------------||
|-----------------------|----------------------||
|-----------------------|----------------------||
|--------/9--(9)\-4-6---|--6p=4--6----6p4-6----||
|-4--4-4----------------|----------------------||
|
| E  E E  E   E   E E E    E  E  E  E E E E E
|-----------------------|----------------------||
|-----------------------|----------------------||
|-5----5--6-------6-8---|--8--9-----9-8---6----||
|----6--------6-------6-|--------6------6---6--||
|-3-------4---------6---|-(6)-7-(7)---6---4----||
|-----------------------|----------------------||
  Q.      Q.        Q     +E  E +Q    Q   Q


 Outro
  (B#5)  (C#5)      (D#5)     (E5)    (D#5(C#5)
  E  E E  E  +E   E Q      E  E  Q    E E Q
|-----------------------|---------------------|
|-----------------------|---------------------|
|-----------------------|---------------------|
|-----------------------|---------------------|
|--------/9--(9)\-4-6---|--6p=4--6----6p4-6---|
|-4--4-4----------------|---------------------|
|
| E  E E  E   E   E E E    E  E +E  E E E E E
|-----------------------|---------------------|
|-----------------------|---------------------|
|-5----5--6-------6-8---|--8--9-(9)---8---6---|
|----6--------6-------6-|-----------6---6---6-|
|-3-------4---------6---|-(6)-7-(7)---6---4---|
|-----------------------|---------------------|
| Q.      Q.        Q     +E  E +Q    Q   Q
|
| Gtr V
| Q.      Q.        Q     +E  E +Q    Q   Q
|-----------------------|---------------------|
|-----------------------|---------------------|
|-----------------------|---------------------|
|-----------------------|---------------------|
|-3-------4---------6---|-(6)-7-(7)---6---4---|
|-----------------------|---------------------|


  (B#5)  (C#5)      (D#5)     (E5)    (D#5(C#5)
  E  E E  E  +E   E Q      E  E  Q    E E Q
|-----------------------|----------------------|
|-----------------------|----------------------|
|-----------------------|----------------------|
|-----------------------|----------------------|
|--------/9--(9)\-4-6---|--6p=4--6----6p4-6----|
|-4--4-4----------------|----------------------|
|
| E  E E  E   E   E E E    E  E  E  E E E E E
|-----------------------|----------------------|
|-----------------------|----------------------|
|-5----5--6-------6-8---|--8--9-----9-8---6----|
|----6--------6-------6-|--------6------6---6--|
|-3-------4---------6---|-(6)-7-(7)---6---4----|
|-----------------------|----------------------|
| Q.      Q.        Q     +E  E +Q    Q   Q
|
| Q.      Q.        Q     +E  E +Q    Q   Q
|-----------------------|----------------------|
|-----------------------|----------------------|
|-----------------------|----------------------|
|-----------------------|----------------------|
|-3-------4---------6---|-(6)-7-(7)---6---4----|
|-----------------------|----------------------|


  (B#5)  (C#5)      (D#5)     (E5)    (D#5(C#5)
  E  E E  E  +E   E Q      E  E  Q    E E Q
|-----------------------|---------------------|
|-----------------------|---------------------|
|-----------------------|---------------------|
|-----------------------|---------------------|
|--------/9--(9)\-4-6---|--6p=4--6----6p4-6---|
|-4--4-4----------------|---------------------|
|
| E  E E  E   E   E E E    E  E +E  E E E E E
|-----------------------|---------------------|
|-----------------------|---------------------|
|-5----5--6-------6-8---|--8--9-(9)---8---6---|
|----6--------6-------6-|-----------6---6---6-|
|-3-------4---------6---|-(6)-7-(7)---6---4---|
|-----------------------|---------------------|
| Q.      Q.        Q     +E  E +Q    Q   Q
|
| Q.      Q.        Q     +E  E +Q    Q   Q
|-----------------------|---------------------|
|-----------------------|---------------------|
|-----------------------|---------------------|
|-----------------------|---------------------|
|-3-------4---------6---|-(6)-7-(7)---6---4---|
|-----------------------|---------------------|


  (B#5)  (C#5)      (D#5)     (E5)    (D#5(C#5)
  E  E E  E  +E   E Q      E  E  Q    E E Q
|-----------------------|----------------------|
|-----------------------|----------------------|
|-----------------------|----------------------|
|-----------------------|----------------------|
|--------/9--(9)\-4-6---|--6p=4--6----6p4-6----|
|-4--4-4----------------|----------------------|
|
| E  E E  E   E   E E E    E  E  E  E E E E E
|-----------------------|----------------------|
|-----------------------|----------------------|
|-5----5--6-------6-8---|--8--9-----9-8---6----|
|----6--------6-------6-|--------6------6---6--|
|-3-------4---------6---|-(6)-7-(7)---6---4----|
|-----------------------|----------------------|
| Q.      Q.        Q     +E  E +Q    Q   Q
|
| Q.      Q.        Q     +E  E +Q    Q   Q
|-----------------------|----------------------|
|-----------------------|----------------------|
|-----------------------|----------------------|
|-----------------------|----------------------|
|-3-------4---------6---|-(6)-7-(7)---6---4----|
|-----------------------|----------------------|


  (B#5)  (C#5)      (D#5)     (E5)    (D#5(C#5)
  E  E E  E  +E   E Q      E  E  Q    E E Q
|-----------------------|---------------------|
|-----------------------|---------------------|
|-----------------------|---------------------|
|-----------------------|---------------------|
|--------/9--(9)\-4-6---|--6p=4--6----6p4-6---|
|-4--4-4----------------|---------------------|
|
| E  E E  E   E   E E E    E  E +E  E E E E E
|-----------------------|---------------------|
|-----------------------|---------------------|
|-5----5--6-------6-8---|--8--9-(9)---8---6---|
|----6--------6-------6-|-----------6---6---6-|
|-3-------4---------6---|-(6)-7-(7)---6---4---|
|-----------------------|---------------------|
| Q.      Q.        Q     +E  E +Q    Q   Q
|
| Q.      Q.        Q     +E  E +Q    Q   Q
|-----------------------|---------------------|
|-----------------------|---------------------|
|-----------------------|---------------------|
|-----------------------|---------------------|
|-3-------4---------6---|-(6)-7-(7)---6---4---|
|-----------------------|---------------------|


  (B#5)  (C#5)      (D#5)     (E5)    (D#5(C#5)
  E  E E  E  +E   E Q      E  E  Q    E E Q
|-----------------------|----------------------*|
|-----------------------|----------------------*|
|-----------------------|----------------------*|
|-----------------------|----------------------*|
|--------/9--(9)\-4-6---|--6p=4--6----6p4-6----*|
|-4--4-4----------------|----------------------*|
|
| E  E E  E   E   E E E    E  E  E  E E E E E
|-----------------------|----------------------*|
|-----------------------|----------------------*|
|-5----5--6-------6-8---|--8--9-----9-8---6----*|
|----6--------6-------6-|--------6------6---6--*|
|-3-------4---------6---|-(6)-7-(7)---6---4----*|
|-----------------------|----------------------*|
| Q.      Q.        Q     +E  E +Q    Q   Q
|
| Q.      Q.        Q     +E  E +Q    Q   Q
|-----------------------|----------------------*|
|-----------------------|----------------------*|
|-----------------------|----------------------*|
|-----------------------|----------------------*|
|-3-------4---------6---|-(6)-7-(7)---6---4----*|
|-----------------------|----------------------*|



Duration Legend
---------------
W - whole; H - half; Q - quarter; E - 8th; S - 16th; T - 32nd; X - 64th; a - acciaccatura
+ - note tied to previous; . - note dotted; .. - note double dotted
Uncapitalized letters represent notes that are staccato (1/2 duration)
Irregular groupings are notated above the duration line
Duration letters will always appear directly above the note/fret number it represents the
duration for.  Duration letters with no fret number below them represent rests.  Multi-
bar rests are notated in the form Wxn, where n is the number of bars to rest for.  Low
melody durations appear below the staff

Tablature Legend
----------------
 h   - hammer-on
 p   - pull-off
 b   - bend
 pb  - pre-bend
 r   - bend release (if no number after the r, then release immediately)
 /\  - slide into or out of (from/to "nowhere")
 s   - legato slide
 S   - shift slide
 - natural harmonic
[n]  - artificial harmonic
n(n) - tapped harmonic
 ~   - vibrato
 tr  - trill
 T   - tap
 TP  - trem. picking
 PM  - palm muting
\n/  - tremolo bar dip; n = amount to dip
 \n  - tremolo bar down
 n/  - tremolo bar up
/n\  - tremolo bar inverted dip
 =   - hold bend; also acts as connecting device for hammers/pulls
 <> - volume swell (louder/softer)
 x   - on rhythm slash represents muted slash
 o   - on rhythm slash represents single note slash

Misc Legend
-----------
 |  - bar
||  - double bar
||o - repeat start
o|| - repeat end
*|  - double bar (ending)
 :  - bar (freetime)
 $  - Segno
 &  - Coda
Tempo markers -  = BPM(8/16=s8/s16), where s8 = swing 8ths, s16 = swing 16ths

Related for Discipline tab