Song name
# A B C D E F G H I J K L M N O P Q R S T U V W X Y Z

Nine Inch Nails - Gave Up tab

Nine Inch Nails - Gave Up
Album - Broken
Year - 1992

Tabbed By - Matt Smith (lovehatetrgdy05@yahoo.com)

Tuning - Standard (e b G D A E)

Pre-Chorus

e|-------------|
b|-------------|
G|-------------|
D|-9-----4-4---|
A|-7-7-4-2-2-4-|
E|---5-2-----2-|

Chorus

e|-----------------------------------|
b|-----------------------------------|
G|-----------------------------------|
D|-9-9-9-11-11-----------------4-4---|
A|-7-7-7-9--9--7-7-7-9-9-4-2-4-2-2-4-|
E|-------------5-5-5-7-7-2-2-2-----2-|

Verse

e|-----|
b|-----|
G|-----|
D|-----|
A|-2-4-|
E|-0-2-|
Tap to rate this tab
# A B C D E F G H I J K L M N O P Q R S T U V W X Y Z