Song name
# A B C D E F G H I J K L M N O P Q R S T U V W X Y Z

Nine Inch Nails - Sin tab

“Sin” by Nine Inch Nails
Guitar Tab
Tuning: Drop B (i.e. from high to low: e, B, G, D, A, B) or Standard Tuning on Seven String



A: Verse
Riff A1
|------------------------------|
|------------------------------|
|------------------------------|
|------------------------------|
|------------------------------|
|2-2-2-2---2-2---2-2-2---2-2-2-|
|p.m.--------------------------|

A2
|------------------------------|
|------------------------------|
|------------------------------|
|------------------------------|
|------------------------------|
|3-3-3-3---3-3---3-3-3---3-3-3-|
|p.m.--------------------------|

A3
|------------------------------|
|------------------------------|
|------------------------------|
|------------------------------|
|------------------------------|
|0-0-0-0---0-0---0-0-0---0-0-0-|
|p.m.--------------------------|

A3 Variation
|------------------------------|
|------------------------------|
|------------------------------|
|------------------------------|
|------------------------------|
|0-0-0-0---0-0---0-0-0---0-3-3-|
|p.m.--------------------------|



A4
|------------------------------|
|------------------------------|
|------------------------------|
|------------------------------|
|------------------------------|
|2-2-2-2---2-2---2-2-2---2-2-2-|
|p.m.--------------------------|

A4 Variation
|------------------------------|
|------------------------------|
|------------------------------|
|------------------------------|
|------------------------------|
|2-2-2-2---2-2---2-2-2---2-2-2-|
|p.m.--------------------------|



B: Pre-Chorus
Riff B
|-------------------|
|---------7---------|
|--4-6—6------4--6--|
|-------------------|
|4----4-----4-------|
|-------------------|


C: Chorus
Riff C1 (Heavy Distortion)
|----------------|
|----------------|
|6-6-6-6-6-6-6-6-|
|6-6-6-6-6-6-6-6-|
|4-4-4-4-4-4-4-4-|
|----------------|

C2 (Heavy Distortion)
|----------------|
|----------------|
|7-7-7-7-7-7-xxxx|
|7-7-7-7-7-7-xxxx|
|5-5-5-5-5-5-xxxx|
|----------------|
C2 Variation
|----------------|
|----------------|
|7-7-7-7-7-7-7-7-|
|7-7-7-7-7-7-7-7-|
|5-5-5-5-5-5-5-5-|
|----------------|

C3 (Heavy Distortion)
|----------------|
|----------------|
|4-4-4-4-4-4-7-7-|
|4-4-4-4-4-4-7-7-|
|2-2-2-2-2-2-5-5-|

C3 Variation
|----------------|
|----------------|
|4-4-4-4-4-4-4-4-|
|4-4-4-4-4-4-4-4-|
|2-2-2-2-2-2-2-2-|
|----------------|

C4 (Heavy Distortion)
|----------------|
|----------------|
|6-6-6-6-6-6-6-6-|
|6-6-6-6-6-6-6-6-|
|4-4-4-4-4-4-4-4-|

C4 Variation
|----------------|
|----------------|
|6-6-6-6-xxxxxxxx|
|6-6-6-6-xxxxxxxx|
|4-4-4-4-xxxxxxxx|
|----------------|
Tap to rate this tab
 
# A B C D E F G H I J K L M N O P Q R S T U V W X Y Z