Song name
# A B C D E F G H I J K L M N O P Q R S T U V W X Y Z

Nine Inch Nails - Right Where It Belongs Live tab

-------------------------------------------------------------------------------
	        Right where it belongs (live) - Nine Inch Nails
-------------------------------------------------------------------------------
Tabbed by: Mucki
Tuning: Standard - EADGBe

This is what is played in the live version from the "beside you in time"-DVD 
arranged for one acoustic guitar.
Let the notes ring where possible and try to find a good fingering to be able to do so.
Play quiet and gently. And mabye you could try to strike the notes at the bridge 
to get that hard sound 
the guitar has in the live recording. Have fun!


Verse
e|-----------------|-----------------|---------------------|-----------------|
B|-----------------|-----------------|---------------------|-----------------|
G|---7---7---7-5-7-|---7---7---7-7-9-|-7--------------9-10-|-------------7---|
D|-----------------|-----------------|---10---10---10------|---8---8---8---8-|
A|-5---5---5-------|-5---5---5-------|---------------------|-----------------|
E|-----------------|-----------------|------8----8---------|-6---6---6-------|

let ring -------------------------------------------------------------------|

refrain
e|-----------------|-----------------|-----------------|-----------------|
B|---1-3-1-3-1-----|---1-3-1-3-1-----|---1-3-1-3-1-----|---1-3-1-3-1-----|
G|-------------0---|-------------0---|-----------------|-----------------|
D|---------------3-|---------------3-|-------------3-2-|-------------3-0-|
A|-----------------|-1---1---1-------|-----------------|-3---3---3-------|
E|-3---3---3-------|-----------------|-1---1---1-------|-----------------|
  
let ring ---------------------------------------------------------------|

ending                                                               1.2.3.                4.
e|------------------|-------0---1---1-|-----------------|------------------|-----------------|
B|o-----------------|-----3-----------|-----------------|---1-1-----------o|---1---1---1---1-|
G|----0---0---0---0-|---3-------------|-----------------|-------3---2---0--|-----------------|
D|------------------|-----------------|---3---3---3---3-|------------------|-----------------|
A|o-----------------|-1---1---1---1---|-----------------|-3---3---3---3---o|-3---3---3---3---|
E|--3---3---3---3---|-----------------|-1---1---1---1---|------------------|-----------------|

let ring -----------------------------------------------------------------------------------|


verse 5x
chorus 4x
verse 5x
chorus 4x
ending 4x


| /  slide up
| \  slide down
| h  hammer-on
| p  pull-off
| ~  vibrato
| +  harmonic
| x  Mute note
===============================================================================
Tap to rate this tab
# A B C D E F G H I J K L M N O P Q R S T U V W X Y Z