Song name
# A B C D E F G H I J K L M N O P Q R S T U V W X Y Z

Nine Inch Nails - Getting Smaller tab

Submitted By: Alex B. 

Getting Smaller
Nine Inch Nails
With Teeth
2005

Notation Needed for Tab:

 /   slide up 
 \   slide down 


Intro (Heavy Heavy Distortion)
Eb--------------------------|
Bb--------------------------|
Gb-----9---------7----------|
Db-----9--X9-----7----------|
Ab-----7---------5----------|
Eb--------------------------|
the X9 means sturm the chord nine times

Verse (:20-:42)
Verse 2 (1:05-1:39)
Eb----------------------------------------------------------|
Bb----------------------------------------------------------|
Gb-------------------12\---9-----X--X-X---------------------|
Db-------------------12\---9-----X--X-X---------------------|
Ab-------------------10\---7-----X--X-X---------------------|
Eb--0-3-0-5-3-----------------------------------------------|

Chorus (:42-1:05)
	   (1:39-2:02)
Guitar 1 
Eb-------------------------------------------------------------|
Bb-------------------------------------------------------------|
Gb-------------------------------------------------------------|
Db-------------------------------------------------------------|
Ab---10-7------------4-5-7--10-10-10-7-----------4-5-7---------|
Eb--------10-7-10-7--------------------10-7-10-7---------------|

Guitar 2 (:53-1:05)
		 (1:52-2:02)
Eb--------------------------|
Bb--------------------------|
Gb-----9---------7----------|
Db-----9--X9-----7----------|
Ab-----7---------5----------|
Eb--------------------------|
Gradually Get Louder Throughout The Chorus

Bridge (2:02-2:25)
Eb---------------------------------------------------------|
Bb---------------------------------------------------------|
Gb-----5-5-5-5---------------------------------------------|
Db-----5-5-5-5----5/--7---5/---7-7-7-----------------------|
Ab-----3-3-3-3----5/--7---5/---7-7-7-----------------------|
Eb----------------3/--5---3/---5-5-5-----------------------|
During The Bridge A Second Guitar Comes On :14 With The Guitar 2 Part from the Chorus


If the remaining time of the song the strucure goes as follows

Verse Riff  (2:25-2:48)
Chorus Riff (2:48-End)

Song Structure:

Intro
Verse
Chorus
Verse
Chorus
Bridge
Verse Riff
Chorus Riff
End
Tap to rate this tab
# A B C D E F G H I J K L M N O P Q R S T U V W X Y Z