Song name
# A B C D E F G H I J K L M N O P Q R S T U V W X Y Z

Nine Inch Nails - Love Is Not Enough tab

#----------------------------------PLEASE NOTE---------------------------------#
#This file is the author's own work and represents their interpretation of the #
#song. You may only use this file for private study, scholarship, or research. #
#------------------------------------------------------------------------------#

LOVE IS NOT ENOUGH
As recorded by Nine Inch Nails
(From the 2005 Album WITH TEETH)

Transcribed by scott666
	

Words by Trent Reznor Music by Nine Inch Nails

Gtr I (D A D G B E) - 'Synth'
Gtr II (D A D G B E) - 'Guitar w/ Fuzz'
Gtr III (D A D G B E) - 'Lead'

 Intro         Verse
  Q=123
  N.C.
 4/4
  Gtr I
  Wx8           Wx12          H    E  q   E      +Q.    q   q   E
|------------||-------------|--------10--10-||--(10)---10--10--10---||
|------------||-------------|---------------||o--------------------o||
|------------||-------------|---------------||----------------------||
|------------||-------------|---------------||----------------------||
|------------||-------------|---------------||o--------------------o||
|------------||-------------|---------------||----------------------||


   +Q.     q   q   E         Q.               q       q   E
|-(10)----10--10--10-----|--10---------------10------10--10-|
|------------------------|----------------------------------|
|------------------------|----------------------------------|
|------------------------|----------------------------------|
|------------------------|----------------------------------|
|------------------------|----------------------------------|
|
| Gtr II
|   H..            E        +E   +S   +S   E  E  +H
|------------------------|----------------------------------|
|------------------------|----------------------------------|
|------------------------|----------------------------------|
|-----------------12b13==|=(12)-(12)r(12)-10----------------|
|------------------------|----------------------------------|
|------------------------|-------------------11-(11)--------|


   +Q.    q   q   E    +Q.    q   q   E
|-(10)---10--10--10-|-(10)---10--10--10--|
|-------------------|--------------------|
|-------------------|--------------------|
|-------------------|--------------------|
|-------------------|--------------------|
|-------------------|--------------------|
|
|                       >
|  +W                  +W
|-------------------|--------------------|
|-------------------|--------------------|
|-------------------|--------------------|
|-------------------|--------------------|
|-------------------|--------------------|
|-(11)--------------|-(11)---------------|


   +Q.     q   q   E        +Q.               q       q   E
|-(10)----10--10--10-----|-(10)--------------10------10--10-|
|------------------------|----------------------------------|
|------------------------|----------------------------------|
|------------------------|----------------------------------|
|------------------------|----------------------------------|
|------------------------|----------------------------------|
|
|   H..            E        +E   +S   +S   E  E  +H
|------------------------|----------------------------------|
|------------------------|----------------------------------|
|------------------------|----------------------------------|
|-----------------12b13==|=(12)-(12)r(12)-10----------------|
|------------------------|----------------------------------|
|------------------------|-------------------11-(11)--------|


   +Q.    q   q   E    +Q.    q   q   E    +Q.     q   q  E
|-(10)---10--10--10-|-(10)---10--10--10-|-(10)----10--10------||
|-------------------|-------------------|---------------------||
|-------------------|-------------------|---------------------||
|-------------------|-------------------|---------------------||
|-------------------|-------------------|---------------------||
|-------------------|-------------------|---------------------||
|
|                       >
|  +W                  +W                   H..           E
|-------------------|-------------------|---------------------||
|-------------------|-------------------|---------------------||
|-------------------|-------------------|-----------------5---||
|-------------------|-------------------|---------------------||
|-------------------|-------------------|-----------------3---||
|-(11)--------------|-(11)--------------|---------------------||


   Chorus
    Gtr II
    E E E E +H       +H..       E   E E E E +H       +H..       E   3x
||-----------------|--------------|----------------|----------------||
||o----------------|--------------|----------------|---------------o||
||--5-5-5-4-(4)----|-(4)----------|----------------|------------5---||
||-----------------|------------3-|-3-3-3-0-(0)----|-(0)------------||
||o-3-3-3-2-(2)----|-(2)----------|----------------|------------3--o||
||-----------------|------------3-|-3-3-3-0-(0)----|-(0)------------||


  E E E E +H       +H..       E   E E +H.        +W
|----------------|--------------|--------------|--------||
|----------------|--------------|--------------|--------||
|-5-5-5-4-(4)----|-(4)----------|--------------|--------||
|----------------|------------0-|-3-0-(0)------|-(0)----||
|-3-3-3-2-(2)----|-(2)----------|--------------|--------||
|----------------|------------0-|-3-0-(0)------|-(0)----||


 Verse
  Gtr I                                                              Gtr II
  Wx8          H    E  q   E      +Q.    q   q   E  6x  Q.    q   q  E
|------------|--------10--10-||--(10)---10--10--10--||-10----10--10----||
|------------|---------------||o-------------------o||-----------------||
|------------|---------------||---------------------||---------------5-||
|------------|---------------||---------------------||-----------------||
|------------|---------------||o-------------------o||---------------3-||
|------------|---------------||---------------------||-----------------||


   Chorus
    Gtr II
    E E E E +H       +H..       E   E E E E +H       +H..       E   3x
||-----------------|--------------|----------------|----------------||
||o----------------|--------------|----------------|---------------o||
||--5-5-5-4-(4)----|-(4)----------|----------------|------------5---||
||-----------------|------------3-|-3-3-3-0-(0)----|-(0)------------||
||o-3-3-3-2-(2)----|-(2)----------|----------------|------------3--o||
||-----------------|------------3-|-3-3-3-0-(0)----|-(0)------------||


  E E E E +H       +H..       E   E E +H.        +H..       E
|----------------|--------------|--------------|--------------||
|----------------|--------------|--------------|--------------||
|-5-5-5-4-(4)----|-(4)----------|--------------|------------5-||
|----------------|------------0-|-3-0-(0)------|-(0)----------||
|-3-3-3-2-(2)----|-(2)----------|--------------|------------3-||
|----------------|------------0-|-3-0-(0)------|-(0)----------||


 Bridge
  Gtr II
   E       E    E   E +H                   +H..                                 E
|----------------------------------------|----------------------------------------|
|----------------------------------------|----------------------------------------|
|--5-------5----5---4-(4)----------------|-(4)------------------------------------|
|----------------------------------------|--------------------------------------3-|
|--3-------3----3---2-(2)----------------|-(2)------------------------------------|
|----------------------------------------|--------------------------------------3-|
|
| Gtr III
|  E      +E   +Q      E      +E   +Q       E      +E   +Q     E      +E   +Q
|-16b19==(16)-(16)r---17b20==(17)-(17)r--|-19b22==(19)-(19)r--21b25==(21)-(21)r---|
|----------------------------------------|----------------------------------------|
|----------------------------------------|----------------------------------------|
|----------------------------------------|----------------------------------------|
|----------------------------------------|----------------------------------------|
|----------------------------------------|----------------------------------------|


   E       E    E   E +H                   +H..                                 E
|----------------------------------------|----------------------------------------|
|----------------------------------------|----------------------------------------|
|----------------------------------------|--------------------------------------5-|
|--3-------3----3---0-(0)----------------|-(0)------------------------------------|
|----------------------------------------|--------------------------------------3-|
|--3-------3----3---0-(0)----------------|-(0)------------------------------------|
|
|  E      +E   +Q      E      +E   +Q       E      +E   +Q     E      +E   +Q
|-16b19==(16)-(16)r---17b20==(17)-(17)r--|-19b22==(19)-(19)r----------------------|
|----------------------------------------|----------------------------------------|
|----------------------------------------|--------------------18b22==(18)-(18)r---|
|----------------------------------------|----------------------------------------|
|----------------------------------------|----------------------------------------|
|----------------------------------------|----------------------------------------|


   E       E    E   E +H                   +H..                                 E
|----------------------------------------|----------------------------------------|
|----------------------------------------|----------------------------------------|
|--5-------5----5---4-(4)----------------|-(4)------------------------------------|
|----------------------------------------|--------------------------------------3-|
|--3-------3----3---2-(2)----------------|-(2)------------------------------------|
|----------------------------------------|--------------------------------------3-|
|
|  E      +E   +Q      E      +E   +Q       E      +E   +Q     E      +E   +Q
|-16b19==(16)-(16)r---17b20==(17)-(17)r--|-19b22==(19)-(19)r--21b25==(21)-(21)r---|
|----------------------------------------|----------------------------------------|
|----------------------------------------|----------------------------------------|
|----------------------------------------|----------------------------------------|
|----------------------------------------|----------------------------------------|
|----------------------------------------|----------------------------------------|


   E       E    E   E +H                   +H..                              E
|---------------------------------------|--------------------------------------|
|---------------------------------------|--------------------------------------|
|---------------------------------------|------------------------------------5-|
|--3-------3----3---0-(0)---------------|--(0)---------------------------------|
|---------------------------------------|------------------------------------3-|
|--3-------3----3---0-(0)---------------|--(0)---------------------------------|
|
|  E      +E   +Q      E      +E   +Q      +E   E  E  +E    E      +E   +Q
|-16b19==(16)-(16)r---17b20==(17)-(17)--|-(17)h18p17-(17)r---------------------|
|---------------------------------------|--------------------------------------|
|---------------------------------------|------------------18b22==(18)-(18)r---|
|---------------------------------------|--------------------------------------|
|---------------------------------------|--------------------------------------|
|---------------------------------------|--------------------------------------|


   E       E    E   E +H                   +H..                                 E
|----------------------------------------|----------------------------------------|
|----------------------------------------|----------------------------------------|
|--5-------5----5---4-(4)----------------|-(4)------------------------------------|
|----------------------------------------|--------------------------------------3-|
|--3-------3----3---2-(2)----------------|-(2)------------------------------------|
|----------------------------------------|--------------------------------------3-|
|
|  E      +E   +Q      E      +E   +Q       E      +E   +Q     E      +E   +Q
|-16b19==(16)-(16)r---17b20==(17)-(17)r--|-19b22==(19)-(19)r--21b25==(21)-(21)r---|
|----------------------------------------|----------------------------------------|
|----------------------------------------|----------------------------------------|
|----------------------------------------|----------------------------------------|
|----------------------------------------|----------------------------------------|
|----------------------------------------|----------------------------------------|


   E       E    E   E +H                   +H..                                 E
|----------------------------------------|----------------------------------------|
|----------------------------------------|----------------------------------------|
|----------------------------------------|--------------------------------------5-|
|--3-------3----3---0-(0)----------------|-(0)------------------------------------|
|----------------------------------------|--------------------------------------3-|
|--3-------3----3---0-(0)----------------|-(0)------------------------------------|
|
|  E      +E   +Q      E      +E   +Q       E      +E   +Q     E      +E   +Q
|-16b19==(16)-(16)r---17b20==(17)-(17)r--|-19b22==(19)-(19)r----------------------|
|----------------------------------------|----------------------------------------|
|----------------------------------------|--------------------18b22==(18)-(18)r---|
|----------------------------------------|----------------------------------------|
|----------------------------------------|----------------------------------------|
|----------------------------------------|----------------------------------------|


   E       E    E   E +H                   +H..                                 E
|----------------------------------------|----------------------------------------|
|----------------------------------------|----------------------------------------|
|--5-------5----5---4-(4)----------------|-(4)------------------------------------|
|----------------------------------------|--------------------------------------0-|
|--3-------3----3---2-(2)----------------|-(2)------------------------------------|
|----------------------------------------|--------------------------------------0-|
|
|  E      +E   +Q      E      +E   +Q       E      +E   +Q     E      +E   +Q
|-16b19==(16)-(16)r---17b20==(17)-(17)r--|-19b22==(19)-(19)r--21b25==(21)-(21)r---|
|----------------------------------------|----------------------------------------|
|----------------------------------------|----------------------------------------|
|----------------------------------------|----------------------------------------|
|----------------------------------------|----------------------------------------|
|----------------------------------------|----------------------------------------|


   E       E   +H.                        +W
|--------------------------------------|-------------------------------------||
|--------------------------------------|-------------------------------------||
|--------------------------------------|-------------------------------------||
|--3-------0---(0)---------------------|--(0)--------------------------------||
|--------------------------------------|-------------------------------------||
|--3-------0---(0)---------------------|--(0)--------------------------------||
|
|  E      +E   +Q     E      +E   +Q      +E   E  E  +E    E      +E   +Q
|-16b19==(16)-(16)r--17b20==(17)-(17)--|-(17)h18p17-(17)r--------------------||
|--------------------------------------|-------------------------------------||
|--------------------------------------|------------------18b22==(18)-(18)r--||
|--------------------------------------|-------------------------------------||
|--------------------------------------|-------------------------------------||
|--------------------------------------|-------------------------------------||


 Outro
  Gtr III
                              ~~~~~~
  W           Q.       +Q    +Q.
|----------|-----------------------|
|----------|-----------------------|
|----------|-----------------------|
|----------|-17b18====(17)r=(17)---|
|----------|-----------------------|
|----------|-----------------------|


 ~~~~~~                           ~~~~
   +H     H       Q.       +Q    +Q    +E
|--------------|-------------------------------|
|--------------|-------------------------------|
|--------------|-------------------------------|
|-(17)---------|-17b18====(17)r=(17)--(17)b18==|
|--------------|-------------------------------|
|--------------|-------------------------------|


   +H      H       Q.       +Q    +Q.      +H     H      W
|---------------|-----------------------|--------------|------|
|---------------|-----------------------|--------------|------|
|---------------|-----------------------|--------------|------|
|-(17)r---------|-17b18====(17)r=(17)---|-(17)---------|------|
|---------------|-----------------------|--------------|------|
|---------------|-----------------------|--------------|------|


                              ~~~~~~
  W           Q.       +Q    +Q.
|----------|-----------------------|
|----------|-----------------------|
|----------|-----------------------|
|----------|-17b18====(17)r=(17)---|
|----------|-----------------------|
|----------|-----------------------|


 ~~~~~~                           ~~~~
   +H     H       Q.       +Q    +E   +E     E
|--------------|-------------------------------|
|--------------|-------------------------------|
|--------------|-------------------------------|
|-(17)---------|-17b18====(17)r=(17)-(17)b18---|
|--------------|-------------------------------|
|--------------|-------------------------------|


  W           Q       +Q     +H        +W           W
|----------|------------------------|-------------|------*|
|----------|------------------------|-------------|------*|
|----------|------------------------|-------------|------*|
|----------|-17b18===(17)r--(17)----|-(17)--------|------*|
|----------|------------------------|-------------|------*|
|----------|------------------------|-------------|------*|



Duration Legend
---------------
W - whole; H - half; Q - quarter; E - 8th; S - 16th; T - 32nd; X - 64th; a - acciaccatura
+ - note tied to previous; . - note dotted; .. - note double dotted
Uncapitalized letters represent notes that are staccato (1/2 duration)
Irregular groupings are notated above the duration line
Duration letters will always appear directly above the note/fret number it represents the
duration for.  Duration letters with no fret number below them represent rests.  Multi-
bar rests are notated in the form Wxn, where n is the number of bars to rest for.  Low
melody durations appear below the staff

Tablature Legend
----------------
 h   - hammer-on
 p   - pull-off
 b   - bend
 pb  - pre-bend
 r   - bend release (if no number after the r, then release immediately)
 /\  - slide into or out of (from/to "nowhere")
 s   - legato slide
 S   - shift slide
 - natural harmonic
[n]  - artificial harmonic
n(n) - tapped harmonic
 ~   - vibrato
 tr  - trill
 T   - tap
 TP  - trem. picking
 PM  - palm muting
\n/  - tremolo bar dip; n = amount to dip
 \n  - tremolo bar down
 n/  - tremolo bar up
/n\  - tremolo bar inverted dip
 =   - hold bend; also acts as connecting device for hammers/pulls
 <> - volume swell (louder/softer)
 x   - on rhythm slash represents muted slash
 o   - on rhythm slash represents single note slash

Misc Legend
-----------
 |  - bar
||  - double bar
||o - repeat start
o|| - repeat end
*|  - double bar (ending)
 :  - bar (freetime)
 $  - Segno
 &  - Coda
Tempo markers -  = BPM(8/16=s8/s16), where s8 = swing 8ths, s16 = swing 16ths

Tap to rate this tab
 
# A B C D E F G H I J K L M N O P Q R S T U V W X Y Z