Song name
# A B C D E F G H I J K L M N O P Q R S T U V W X Y Z

Nine Inch Nails - La Mer tab

#----------------------------------PLEASE NOTE---------------------------------#
#This file is the author's own work and represents their interpretation of the #
#song. You may only use this file for private study, scholarship, or research. #
#------------------------------------------------------------------------------#

LA MER
As recorded by Nine Inch Nails
(From the 1999 Double Album THE FRAGILE)

Transcribed by Matthew Ford
	

Words and Music by Trent Reznor

Bb5
6 8 8 x x x
	
C5
8 10 10 x x x
	
Eb5
x 6 8 8 x x
	
F5
x 8 10 10 x x

Ab5
4 6 6 x x x

Gtr I (E A D G B E) - 'Piano - Trent Reznor (2 pianos arranged for 1)'
Gtr II (E A D G B E) - 'Trent Reznor'
Gtr III (A D G C E A) - 'Baritone guitar (Trent Reznor)'
Gtr IV (E A D G B E) - 'Piano - Trent Reznor'
Gtr V (E A D G B E) - 'Guitar - Trent Reznor (2 gtrs. arranged for 1)'

    Moderately Q=94
    N.C.
   3/4
    Gtr I
     Q   E  E  E E    Q   E  E  E E    Q   E  E  E E    Q   E  E  E E
||-----------------|----------------|----------------|-----------------||
||o----------------|----------------|----------------|----------------o||
||---9---9-10--9-7-|--9---9-10--9-7-|--9---9-10--9-7-|--9---9-10--9-7--||
||--10--10-12-10-8-|-10--10-12-10-8-|-10--10-12-10-8-|-10--10-12-10-8--||
||o----------------|----------------|----------------|----------------o||
||-----------------|----------------|----------------|-----------------||


   Q   E  E  E  E    Q    E  E  E  E    Q     E   E  E  E    Q      E   E  E E
|-----------------|------------------|--------------------|--------------------|
|-----------------|------------------|--------------------|--------------------|
|--9---9-10--9--7-|--9----9-10--9--7-|--9-----9--10--9--7-|--9------9--10--9-7-|
|-10--10-12-10--8-|-10---10-12-10--8-|-10----10--12-10--8-|-10-----10--12-10-8-|
|-----------------|------------------|--------------------|--------------------|
|-----------------|------------------|--------------------|--------------------|
|
| Gtr II
|  Q   E  E  E  E    Q.      E  E  E    E  E  Q.        E    E  E  +H
|-----------22----|-20---------------|--------------------|--------------------|
|-----------------|---------18-18-20-|-20-----------------|-20-----------------|
|--------19----19-|------------------|----17-17--------15-|----15-(15)---------|
|-----------------|------------------|--------------------|--------------------|
|-----------------|------------------|--------------------|--------------------|
|-----------------|------------------|--------------------|--------------------|


   Q   E  E  E E    Q   E  E  E E    Q   E  E  E  E     Q    E  E  E E
|----------------|----------------|-----------------|------------------|
|----------------|----------------|-----------------|------------------|
|--9---9-10--9-7-|--9---9-10--9-7-|--9---9-10--9--7-|---9----9-10--9-7-|
|-10--10-12-10-8-|-10--10-12-10-8-|-10--10-12-10--8-|--10---10-12-10-8-|
|----------------|----------------|-----------------|------------------|
|----------------|----------------|-----------------|------------------|
|
|  Q   Q     Q      H         Q      H         E  E    +H.
|----------------|----------------|-----------------|------------------|
|----------------|----------------|-----------------|------------------|
|-14--15----17---|-14-------------|-----------------|------------------|
|----------------|-----------15---|-----------------|------------------|
|----------------|----------------|-----------15-13-|-(13)-------------|
|----------------|----------------|-----------------|------------------|


   Q   E  E  E  E    Q     E   E  E  E     Q      E  E  E  E    Q    E  E  E E
|-----------------|--------------------|---------------------|-----------------|
|-----------------|--------------------|---------------------|-----------------|
|--9---9-10--9--7-|--9-----9--10--9--7-|---9------9-10--9--7-|--9----9-10--9-7-|
|-10--10-12-10--8-|-10----10--12-10--8-|--10-----10-12-10--8-|-10---10-12-10-8-|
|-----------------|--------------------|---------------------|-----------------|
|-----------------|--------------------|---------------------|-----------------|
|
|  H         E  E    E  E  Q.        E    +E   H           E    H.
|-17--------------|-------18--------20-|-(20)----------------|-15--------------|
|-----------20-18-|-18-17--------------|---------------------|-----------------|
|-----------------|--------------------|------17----------15-|-----------------|
|-----------------|--------------------|---------------------|-----------------|
|-----------------|--------------------|---------------------|-----------------|
|-----------------|--------------------|---------------------|-----------------|


   Q    E  E  E E    Q   E   E  E  E    Q   E  E  E E     Q    E  E  E E
|-----------------|------------------|----------------|------------------|
|-----------------|------------------|----------------|------------------|
|--9----9-10--9-7-|--9---9--10--9--7-|--9---9-10--9-7-|---9----9-10--9-7-|
|-10---10-12-10-8-|-10--10--12-10--8-|-10--10-12-10-8-|--10---10-12-10-8-|
|-----------------|------------------|----------------|------------------|
|-----------------|------------------|----------------|------------------|
|
|  H.                Q   Q.        E    H         Q      +H.
|-----------------|------------------|----------------|------------------|
|-----------------|-----13--------15-|----------------|------------------|
|-12--------------|-12---------------|-12-------------|------------------|
|-----------------|------------------|----------------|------------------|
|-----------------|------------------|-----------15---|-(15)-------------|
|-----------------|------------------|----------------|------------------|


   Q   E  E  E  E    Q    E  E  E  E    Q   E   E  E  E    Q     E  E  E E
|-----------------|------------------|------------------|------------------|
|-----------------|------------------|------------------|------------------|
|--9---9-10--9--7-|--9----9-10--9--7-|--9---9--10--9--7-|--9-----9-10--9-7-|
|-10--10-12-10--8-|-10---10-12-10--8-|-10--10--12-10--8-|-10----10-12-10-8-|
|-----------------|------------------|------------------|------------------|
|-----------------|------------------|------------------|------------------|
|
|  Q   E  E  E  E    Q.      E  E  E    Q   Q.        E    E  E  H
|-----------22----|-20---------------|---------------17-|------------------|
|-----------------|---------18-18-20-|-20---------------|-20---------------|
|--------19----19-|------------------|-----17-----------|----17-17---------|
|-----------------|------------------|------------------|------------------|
|-----------------|------------------|------------------|------------------|
|-----------------|------------------|------------------|------------------|


   Q    E  E  E E    Q   E  E  E E    Q      E   E  E E    Q      E   E  E E
|-----------------|----------------|--------------------|--------------------||
|-----------------|----------------|--------------------|--------------------||
|--9----9-10--9-7-|--9---9-10--9-7-|--9------9--10--9-7-|--9------9--10--9-7-||
|-10---10-12-10-8-|-10--10-12-10-8-|-10-----10--12-10-8-|-10-----10--12-10-8-||
|-----------------|----------------|--------------------|--------------------||
|-----------------|----------------|--------------------|--------------------||
|
|  H.                Q   Q     Q      E  E  +H             E  E  +H
|-----------------|----------------|--------------------|--------------------||
|-----------------|-----------15---|-15-----------------|-15-----------------||
|-----------------|-15--14---------|--------------------|--------------------||
|-----------------|----------------|----15-(15)---------|----15-(15)---------||
|-----------------|----------------|--------------------|--------------------||
|-----------------|----------------|--------------------|--------------------||


  N.C.
   Q   E  E  E  E    Q   E  E  E E    Q   E  E  E E    Q    E  E  E E
|-----------------|----------------|----------------|-----------------|
|-----------------|----------------|----------------|-----------------|
|--9---9-10--9--7-|--9---9-10--9-7-|--9---9-10--9-7-|--9----9-10--9-7-|
|-10--10-12-10--8-|-10--10-12-10-8-|-10--10-12-10-8-|-10---10-12-10-8-|
|-----------------|----------------|----------------|-----------------|
|-----------------|----------------|----------------|-----------------|
|
|  Q   E  E  E  E    Q   Q     Q      Q   Q     Q      H.
|-----------22----|-20-------------|-17-------------|-----------------|
|-----------------|-----18----20---|-----18---------|-----------------|
|--------19----19-|----------------|-----------17---|-----------------|
|-----------------|----------------|----------------|-----------------|
|-----------------|----------------|----------------|-----------------|
|-----------------|----------------|----------------|-----------------|


   Q    E  E  E E    Q    E  E  E E    Q   E  E   E   E    Q   E  E   E   E
|-----------------|-----------------|-------------------|-------------------||
|-----------------|-----------------|-------------------|-------------------||
|--9----9-10--9-7-|--9----9-10--9-7-|--9---9-10---9---7-|--9---9-10---9---7-||
|-10---10-12-10-8-|-10---10-12-10-8-|-10--10-12--10---8-|-10--10-12--10---8-||
|-----------------|-----------------|-------------------|-------------------||
|-----------------|-----------------|-------------------|-------------------||
|
|  H.                H.                H         +E   E    H         +E   E
|-----------------|-----------------|-------------------|-------------------||
|-----------------|-----------------|-------------------|-------------------||
|-19--------------|-----------------|----------------17-|----------------17-||
|-----------------|-17--------------|-------------------|-------------------||
|-----------------|-----------------|-15--------(15)----|-15--------(15)----||
|-----------------|-----------------|-------------------|-------------------||


  N.C.
   Q   E  E   E   E    Q   E  E   E   E
|-------------------|-------------------|
|-------------------|-------------------|
|--9---9-10---9---7-|--9---9-10---9---7-|
|-10--10-12--10---8-|-10--10-12--10---8-|
|-------------------|-------------------|
|-------------------|-------------------|
|
|  H         +E   E    H         +E   E
|-------------------|-------------------|
|-------------------|-------------------|
|----------------17-|----------------17-|
|-------------------|-------------------|
|-15--------(15)----|-15--------(15)----|
|-------------------|-------------------|


   Q   E  E   E   E    Q   E  E   E   E
|-------------------|-------------------|
|-------------------|-------------------|
|--9---9-10---9---7-|--9---9-10---9---7-|
|-10--10-12--10---8-|-10--10-12--10---8-|
|-------------------|-------------------|
|-------------------|-------------------|
|
|  H         +E   E    H         +E   E
|-------------------|-------------------|
|-------------------|-------------------|
|----------------17-|----------------17-|
|-------------------|-------------------|
|-15--------(15)----|-15--------(15)----|
|-------------------|-------------------|


   Q   E  E   E   E    Q   E  E   E   E
|-------------------|-------------------|
|-------------------|-------------------|
|--9---9-10---9---7-|--9---9-10---9---7-|
|-10--10-12--10---8-|-10--10-12--10---8-|
|-------------------|-------------------|
|-------------------|-------------------|
|
|  H         +E   E    H         +E   E
|-------------------|-------------------|
|-------------------|-------------------|
|----------------17-|----------------17-|
|-------------------|-------------------|
|-15--------(15)----|-15--------(15)----|
|-------------------|-------------------|


   Q   E  E   E   E    Q   E  E   E   E
|-------------------|-------------------||
|-------------------|-------------------||
|--9---9-10---9---7-|--9---9-10---9---7-||
|-10--10-12--10---8-|-10--10-12--10---8-||
|-------------------|-------------------||
|-------------------|-------------------||
|
|  H         +E   E    H         +E   E
|-------------------|-------------------||
|-------------------|-------------------||
|----------------17-|----------------17-||
|-------------------|-------------------||
|-15--------(15)----|-15--------(15)----||
|-------------------|-------------------||


  N.C.
   Q     E  E  E E    Q   E  E  E E      Q     E  E  E  E    Q    E  E  E E
|------------------|------------------|-------------------|------------------|
|------------------|------------------|-------------------|------------------|
|--9-----9-10--9-7-|--9---9-10--9-7---|--9-----9-10--9--7-|--9----9-10--9-7--|
|-10----10-12-10-8-|-10--10-12-10-8---|-10----10-12-10--8-|-10---10-12-10-8--|
|------------------|------------------|-------------------|------------------|
|------------------|------------------|-------------------|------------------|
|
| Gtr III
|  E  E  E  E  E E    Q   Q     E S S    e  e  e  E  E  E    E E  E  E  Q
|------------------|------------------|-------------------|------------------|
|------------------|------------------|-------------------|------------------|
|-10h11h12--0----3-|----------------0-|-10-11-12----10h11h|=12-0-----3-------|
|------------------|------------------|-------------------|------------------|
|------------------|------------------|-------------------|------------------|
|------------------|------------------|-------------------|------------------|


   Q   E  E    E  E    Q    E  E  E E    Q    E  E  E E    Q      E  E  E E
|-------------------|-----------------|-----------------|-------------------||
|-------------------|-----------------|-----------------|-------------------||
|--9---9-10----9--7-|--9----9-10--9-7-|--9----9-10--9-7-|--9------9-10--9-7-||
|-10--10-12---10--8-|-10---10-12-10-8-|-10---10-12-10-8-|-10-----10-12-10-8-||
|-------------------|-----------------|-----------------|-------------------||
|-------------------|-----------------|-----------------|-------------------||
|
|  Q   E  S S  e  e    e E  E  E  E E    E E  Q     Q      E S S  e  e  e E
|-------------------|-----------------|-----------------|-------------------||
|-------------------|-----------------|-----------------|-------------------||
|-----------0-10-11-|-12---10h11h12-0-|----3------------|------0-10-11-12---||
|-------------------|-----------------|-----------------|-------------------||
|-------------------|-----------------|-----------------|-------------------||
|-------------------|-----------------|-----------------|-------------------||


  Bb5                C5
  Gtr IV
   H.                 H.
   |                  |
   /                  /

  Gtr I
   Q     E  E  E E    Q    E  E  E E
|------------------|-------------------|
|------------------|-------------------|
|--9-----9-10--9-7-|--9----9-10--9-7---|
|-10----10-12-10-8-|-10---10-12-10-8---|
|------------------|-------------------|
|------------------|-------------------|
|
|  E  E  E  E  E E    Q    Q     E S S
|------------------|-------------------|
|------------------|-------------------|
|-10h11h12--0----3-|-----------------0-|
|------------------|-------------------|
|------------------|-------------------|
|------------------|-------------------|


  Eb5                  F5
   H.                   H.
   |                    |
   /                    /

   Q      E  E  E  E    Q     E  E  E E
|--------------------|-------------------|
|--------------------|-------------------|
|--9------9-10--9--7-|--9-----9-10--9-7--|
|-10-----10-12-10--8-|-10----10-12-10-8--|
|--------------------|-------------------|
|--------------------|-------------------|
|
|  e   e  e  E  E  E    E  E  E  E  Q
|--------------------|-------------------|
|--------------------|-------------------|
|-10--11-12----10h11h|=12--0-----3-------|
|--------------------|-------------------|
|--------------------|-------------------|
|--------------------|-------------------|


  Eb5                  F5
   H.                   H.
   |                    |
   /                    /

   Q    E  E    E  E    Q     E  E  E E
|--------------------|------------------|
|--------------------|------------------|
|--9----9-10----9--7-|--9-----9-10--9-7-|
|-10---10-12---10--8-|-10----10-12-10-8-|
|--------------------|------------------|
|--------------------|------------------|
|
|  Q    E  S S  e  e    e  E  E  E  E E
|--------------------|------------------|
|--------------------|------------------|
|------------0-10-11-|-12----10h11h12-0-|
|--------------------|------------------|
|--------------------|------------------|
|--------------------|------------------|


  Ab5                Bb5
   H.                 H.
   |                  |
   /                  /

   Q     E  E  E E    Q       E  E  E E
|------------------|--------------------||
|------------------|--------------------||
|--9-----9-10--9-7-|--9-------9-10--9-7-||
|-10----10-12-10-8-|-10------10-12-10-8-||
|------------------|--------------------||
|------------------|--------------------||
|
|  E  E  Q     Q      E  S S  e  e  e E
|------------------|--------------------||
|------------------|--------------------||
|-----3------------|-------0-10-11-12---||
|------------------|--------------------||
|------------------|--------------------||
|------------------|--------------------||


    Bb5                   C5
     H.                    H.
     |                     |
     /                     /

     Q     E  E  E  E      Q      E   E  E E
||----------------------|----------------------|
||o---------------------|----------------------|
||---9-----9-10--9--7---|--9------9--10--9-7---|
||--10----10-12-10--8---|-10-----10--12-10-8---|
||o---------------------|----------------------|
||----------------------|----------------------|
|
|    E  E  E  E  E  E      Q      Q      E S S
||----------------------|----------------------|
||o---------------------|----------------------|
||--10h11h12--0-----3---|--------------------0-|
||----------------------|----------------------|
||o---------------------|----------------------|
||----------------------|----------------------|
|
|   Gtr V
|    H          +E.   S    S S E +Q.       S S
||----------------------|----------------------|
||o---------------------|----------------------|
||---7----------(7)---7-|--7s8-7-(7)-------7-7-|
||----------------------|----------------------|
||o--5----------(5)---5-|--5s6-5-(5)-------5-5-|
||----------------------|----------------------|


  Eb5                     F5
   H.                      H.
   |                       |
   /                       /

   Q      E  E  E   E      Q      E   E  E E
|-----------------------|-----------------------|
|-----------------------|-----------------------|
|--9------9-10--9---7---|--9------9--10--9-7----|
|-10-----10-12-10---8---|-10-----10--12-10-8----|
|-----------------------|-----------------------|
|-----------------------|-----------------------|
|
|  e   e  e  E  E   E      E   E  E   E  Q
|-----------------------|-----------------------|
|-----------------------|-----------------------|
|-10--11-12----10h=11h==|=12---0------3---------|
|-----------------------|-----------------------|
|-----------------------|-----------------------|
|-----------------------|-----------------------|
|
|  H           +E.    S    S S E +Q.       S S
|-----------------------|-----------------------|
|-----------------------|-----------------------|
|--7-----------(7)----7-|--7s8-7-(7)-------7-7--|
|-----------------------|-----------------------|
|--5-----------(5)----5-|--5s6-5-(5)-------5-5--|
|-----------------------|-----------------------|


  Eb5                     F5
   H.                      H.
   |                       |
   /                       /

   Q    E  E    E   E      Q      E   E  E E
|-----------------------|----------------------|
|-----------------------|----------------------|
|--9----9-10----9---7---|--9------9--10--9-7---|
|-10---10-12---10---8---|-10-----10--12-10-8---|
|-----------------------|----------------------|
|-----------------------|----------------------|
|
|  Q    E  S S  e   e      e   E  E   E  E E
|-----------------------|----------------------|
|-----------------------|----------------------|
|------------0-10--11---|-12-----10h=11h12-0---|
|-----------------------|----------------------|
|-----------------------|----------------------|
|-----------------------|----------------------|
|
|  H           +E.    S    S S E +Q.       S S
|-----------------------|----------------------|
|-----------------------|----------------------|
|--7-----------(7)----7-|--7s8-7-(7)-------7-7-|
|-----------------------|----------------------|
|--5-----------(5)----5-|--5s6-5-(5)-------5-5-|
|-----------------------|----------------------|


  Ab5                   Bb5
   H.                    H.
   |                     |
   /                     /

   Q     E  E  E  E      Q        E   E  E E    6x
|---------------------|-------------------------||
|---------------------|------------------------o||
|--9-----9-10--9--7---|--9--------9--10--9-7----||
|-10----10-12-10--8---|-10-------10--12-10-8----||
|---------------------|------------------------o||
|---------------------|-------------------------||
|
|  E  E  Q     Q         E   S S  e   e  e E    6x
|---------------------|-------------------------||
|---------------------|------------------------o||
|-----3---------------|--------0-10--11-12------||
|---------------------|-------------------------||
|---------------------|------------------------o||
|---------------------|-------------------------||
|
|  H          +E.   S    S S E   +Q.       S S  6x
|---------------------|-------------------------||
|---------------------|------------------------o||
|--7----------(7)---7-|--7s8-7---(7)-------7-7--||
|---------------------|-------------------------||
|--5----------(5)---5-|--5s6-5---(5)-------5-5-o||
|---------------------|-------------------------||


  Bb5                    C5
   H.                     H.
   |                      |
   /                      /

   Q     E  E  E   E      Q      E   E  E  E
|-12----12-13-12--10---|-12-----12--13-12-10---|
|-13----13-15-13--11---|-13-----13--15-13-11---|
|--9-----9-10--9---7---|--9------9--10--9--7---|
|-10----10-12-10---8---|-10-----10--12-10--8---|
|----------------------|-----------------------|
|----------------------|-----------------------|
|
|  E  E  E  E  E   E      Q      Q      E  S S
|----------------------|-----------------------|
|----------------------|-----------------------|
|-10h11h12--0------3---|---------------------0-|
|----------------------|-----------------------|
|----------------------|-----------------------|
|----------------------|-----------------------|
|
|  H          +E.    S    S S E +Q.        S S
|----------------------|-----------------------|
|----------------------|-----------------------|
|--7----------(7)----7-|--7s8-7-(7)--------7-7-|
|----------------------|-----------------------|
|--5----------(5)----5-|--5s6-5-(5)--------5-5-|
|----------------------|-----------------------|


  Eb5                     F5
   H.                      H.
   |                       |
   /                       /

   Q      E  E  E   E      Q      E   E  E  E
|-12-----12-13-12--10---|-12-----12--13-12-10---|
|-13-----13-15-13--11---|-13-----13--15-13-11---|
|--9------9-10--9---7---|--9------9--10--9--7---|
|-10-----10-12-10---8---|-10-----10--12-10--8---|
|-----------------------|-----------------------|
|-----------------------|-----------------------|
|
|  e   e  e  E  E   E      E   E  E   E  Q
|-----------------------|-----------------------|
|-----------------------|-----------------------|
|-10--11-12----10h=11h==|=12---0------3---------|
|-----------------------|-----------------------|
|-----------------------|-----------------------|
|-----------------------|-----------------------|
|
|  H           +E.    S    S S E +Q.        S S
|-----------------------|-----------------------|
|-----------------------|-----------------------|
|--7-----------(7)----7-|--7s8-7-(7)--------7-7-|
|-----------------------|-----------------------|
|--5-----------(5)----5-|--5s6-5-(5)--------5-5-|
|-----------------------|-----------------------|


  Eb5                     F5
   H.                      H.
   |                       |
   /                       /

   Q    E  E    E   E      Q      E   E  E  E
|-12---12-13---12--10---|-12-----12--13-12-10---|
|-13---13-15---13--11---|-13-----13--15-13-11---|
|--9----9-10----9---7---|--9------9--10--9--7---|
|-10---10-12---10---8---|-10-----10--12-10--8---|
|-----------------------|-----------------------|
|-----------------------|-----------------------|
|
|  Q    E  S S  e   e      e   E  H
|-----------------------|-----------------------|
|-----------------------|-----------------------|
|------------0-10--11---|-12--------------------|
|-----------------------|-----------------------|
|-----------------------|-----------------------|
|-----------------------|-----------------------|
|
|  H           +E.    S    S S E +Q.        S S
|-----------------------|-----------------------|
|-----------------------|-----------------------|
|--7-----------(7)----7-|--7s8-7-(7)--------7-7-|
|-----------------------|-----------------------|
|--5-----------(5)----5-|--5s6-5-(5)--------5-5-|
|-----------------------|-----------------------|


  Ab5                   Bb5
   H.                    H.
   |                     |
   /                     /

   Q    E  E  E   E      Q      E  E  E  E
|-12---12-13-12--10---|-12-----12-13-12-10-||
|-13---13-15-13--11---|-13-----13-15-13-11-||
|--9----9-10--9---7---|--9------9-10--9--7-||
|-10---10-12-10---8---|-10-----10-12-10--8-||
|---------------------|--------------------||
|---------------------|--------------------||
|
|  H.                    H.
|---------------------|--------------------||
|---------------------|--------------------||
|---------------------|--------------------||
|---------------------|--------------------||
|---------------------|--------------------||
|---------------------|--------------------||
|
|  H         +E.    S    S S E  H
|---------------------|--------------------||
|---------------------|--------------------||
|--7---------(7)----7-|--7s8-7-------------||
|---------------------|--------------------||
|--5---------(5)----5-|--5s6-5-------------||
|---------------------|--------------------||


  N.C.
   Q    E  E  E  E    Q    E  E  E  E    Q    E  E  E  E    Q    E  E  E  E
|-12---12-13-12-10-|-12---12-13-12-10-|-12---12-13-12-10-|-12---12-13-12-10-|
|-13---13-15-13-11-|-13---13-15-13-11-|-13---13-15-13-11-|-13---13-15-13-11-|
|--9----9-10--9--7-|--9----9-10--9--7-|--9----9-10--9--7-|--9----9-10--9--7-|
|-10---10-12-10--8-|-10---10-12-10--8-|-10---10-12-10--8-|-10---10-12-10--8-|
|------------------|------------------|------------------|------------------|
|------------------|------------------|------------------|------------------|
|
| Gtr IV
|  H.                 H.                 H.                 H.
|------------------|------------------|------------------|------------------|
|------------------|-13---------------|-16---------------|------------------|
|-15---------------|------------------|------------------|------------------|
|------------------|------------------|------------------|-15---------------|
|------------------|------------------|------------------|------------------|
|------------------|------------------|------------------|------------------|


   Q    E  E  E  E    Q    E  E  E  E    Q    E  E  E  E    Q    E  E  E  E
|-12---12-13-12-10-|-12---12-13-12-10-|-12---12-13-12-10-|-12---12-13-12-10-|
|-13---13-15-13-11-|-13---13-15-13-11-|-13---13-15-13-11-|-13---13-15-13-11-|
|--9----9-10--9--7-|--9----9-10--9--7-|--9----9-10--9--7-|--9----9-10--9--7-|
|-10---10-12-10--8-|-10---10-12-10--8-|-10---10-12-10--8-|-10---10-12-10--8-|
|------------------|------------------|------------------|------------------|
|------------------|------------------|------------------|------------------|
|
|  H.                 H.                 H.                 H.
|------------------|------------------|------------------|------------------|
|-16---------------|------------------|------------------|------------------|
|------------------|------------------|-13---------------|-15---------------|
|------------------|-15---------------|------------------|------------------|
|------------------|------------------|------------------|------------------|
|------------------|------------------|------------------|------------------|


   Q    E  E  E  E    Q    E  E  E  E    Q    E  E  E  E    Q    E  E  E  E
|-12---12-13-12-10-|-12---12-13-12-10-|-12---12-13-12-10-|-12---12-13-12-10-|
|-13---13-15-13-11-|-13---13-15-13-11-|-13---13-15-13-11-|-13---13-15-13-11-|
|--9----9-10--9--7-|--9----9-10--9--7-|--9----9-10--9--7-|--9----9-10--9--7-|
|-10---10-12-10--8-|-10---10-12-10--8-|-10---10-12-10--8-|-10---10-12-10--8-|
|------------------|------------------|------------------|------------------|
|------------------|------------------|------------------|------------------|
|
|  H.                 H.                 H.                 H.
|------------------|------------------|------------------|------------------|
|------------------|-13---------------|-16---------------|------------------|
|-15---------------|------------------|------------------|------------------|
|------------------|------------------|------------------|-15---------------|
|------------------|------------------|------------------|------------------|
|------------------|------------------|------------------|------------------|


   Q    E  E  E  E    Q    E  E  E  E    Q    E  E  E  E    Q    E  E  E  E
|-12---12-13-12-10-|-12---12-13-12-10-|-12---12-13-12-10-|-12---12-13-12-10-|
|-13---13-15-13-11-|-13---13-15-13-11-|-13---13-15-13-11-|-13---13-15-13-11-|
|--9----9-10--9--7-|--9----9-10--9--7-|--9----9-10--9--7-|--9----9-10--9--7-|
|-10---10-12-10--8-|-10---10-12-10--8-|-10---10-12-10--8-|-10---10-12-10--8-|
|------------------|------------------|------------------|------------------|
|------------------|------------------|------------------|------------------|
|
|  H.                 H.                 H.                 H.
|------------------|------------------|------------------|------------------|
|-16---------------|------------------|------------------|------------------|
|------------------|------------------|-13---------------|-15---------------|
|------------------|-15---------------|------------------|------------------|
|------------------|------------------|------------------|------------------|
|------------------|------------------|------------------|------------------|


   Q    E  E  E  E    Q    E  E  E  E    Q    E  E  E  E    Q    E  E  E  E
|-12---12-13-12-10-|-12---12-13-12-10-|-12---12-13-12-10-|-12---12-13-12-10-|
|-13---13-15-13-11-|-13---13-15-13-11-|-13---13-15-13-11-|-13---13-15-13-11-|
|--9----9-10--9--7-|--9----9-10--9--7-|--9----9-10--9--7-|--9----9-10--9--7-|
|-10---10-12-10--8-|-10---10-12-10--8-|-10---10-12-10--8-|-10---10-12-10--8-|
|------------------|------------------|------------------|------------------|
|------------------|------------------|------------------|------------------|
|
|  H.                 H.                 H.                 H.
|------------------|------------------|------------------|------------------|
|------------------|-13---------------|-16---------------|------------------|
|-15---------------|------------------|------------------|------------------|
|------------------|------------------|------------------|-15---------------|
|------------------|------------------|------------------|------------------|
|------------------|------------------|------------------|------------------|


   Q    E  E  E  E    Q    E  E  E  E    Q    E  E  E  E    Q    E  E  E  E
|-12---12-13-12-10-|-12---12-13-12-10-|-12---12-13-12-10-|-12---12-13-12-10-*|
|-13---13-15-13-11-|-13---13-15-13-11-|-13---13-15-13-11-|-13---13-15-13-11-*|
|--9----9-10--9--7-|--9----9-10--9--7-|--9----9-10--9--7-|--9----9-10--9--7-*|
|-10---10-12-10--8-|-10---10-12-10--8-|-10---10-12-10--8-|-10---10-12-10--8-*|
|------------------|------------------|------------------|------------------*|
|------------------|------------------|------------------|------------------*|
|
|  H.                 H.                 H.                 H.
|------------------|------------------|------------------|------------------*|
|-16---------------|------------------|------------------|------------------*|
|------------------|------------------|-13---------------|-15---------------*|
|------------------|-15---------------|------------------|------------------*|
|------------------|------------------|------------------|------------------*|
|------------------|------------------|------------------|------------------*|



Duration Legend
---------------
W - whole; H - half; Q - quarter; E - 8th; S - 16th; T - 32nd; X - 64th; a - acciaccatura
+ - note tied to previous; . - note dotted; .. - note double dotted
Uncapitalized letters represent notes that are staccato (1/2 duration)
Irregular groupings are notated above the duration line
Duration letters will always appear directly above the note/fret number it represents the
duration for.  Duration letters with no fret number below them represent rests.  Multi-
bar rests are notated in the form Wxn, where n is the number of bars to rest for.  Low
melody durations appear below the staff

Tablature Legend
----------------
 h   - hammer-on
 p   - pull-off
 b   - bend
 pb  - pre-bend
 r   - bend release (if no number after the r, then release immediately)
 /\  - slide into or out of (from/to "nowhere")
 s   - legato slide
 S   - shift slide
 - natural harmonic
[n]  - artificial harmonic
n(n) - tapped harmonic
 ~   - vibrato
 tr  - trill
 T   - tap
 TP  - trem. picking
 PM  - palm muting
\n/  - tremolo bar dip; n = amount to dip
 \n  - tremolo bar down
 n/  - tremolo bar up
/n\  - tremolo bar inverted dip
 =   - hold bend; also acts as connecting device for hammers/pulls
 <> - volume swell (louder/softer)
 x   - on rhythm slash represents muted slash
 o   - on rhythm slash represents single note slash

Misc Legend
-----------
 |  - bar
||  - double bar
||o - repeat start
o|| - repeat end
*|  - double bar (ending)
 :  - bar (freetime)
 $  - Segno
 &  - Coda
Tempo markers -  = BPM(8/16=s8/s16), where s8 = swing 8ths, s16 = swing 16ths

Tap to rate this tab
# A B C D E F G H I J K L M N O P Q R S T U V W X Y Z