Song name
# A B C D E F G H I J K L M N O P Q R S T U V W X Y Z

Nino Rota - The Godfather Theme tab

This is my first tab I've done and I hope it is as accurate
as possible

Enjoy!


E|---------0--|-3-0-2-0---------|---------------0--|
B|---5-8-7----|-----1---1-3-0---|-----0---5-8-7----|
G|-4----------|-----2---------0-|---0---4----------|
D|------------|-----------------|-2----------------|
A|------------|-----------------|------------------|
E|-------0----|-----0-------0---|-------------0----|


E|-3-0-2-0----|-----------------|------------------|
B|---------0--|-----------------|-4-7-------7------|
G|------------|-0-2---------2-5-|-----5---5-----5--|
D|------------|-----2---2-------|-------7-----7----|
A|------------|---0---3---0-----|---0--------------|
E|-----3------|-----------------|------------------|


E|------------|-0---------------|------------------|
B|-----0---0--|-------3-1-0-3-1-|-1-0-0------------|
G|-8-9--------|-----0-----------|-2----------------|
D|------------|---2-------------|-------1-2--------|
A|------10----|---------2-------|-2---------2---2--|
E|---0--------|-----------------|---------0---3----|


E|------------|-----------------|------------------|
B|-------3-1--|-0-3-1-1-0-0-----|------------------|
G|-----0------|-----------------|------------------|
D|---2--------|-------------1---|-2----------------|
A|---------2--|-------2---------|---2---2----------|
E|-0----------|-----------------|-0---3---0--------|



E|-0-0--------|---0-2-0---------|------------------|
B|-----4-3----|---------1---0---|-------0-0-3-0----|
G|---------5--|-----------2-----|-0---0------------|
D|------------|-4---0-----------|---0--------------|
A|-------5----|-----------------|------------------|
E|------------|-------------3---|------------------|


E|------------|-----------------|------------------|
B|------------|---1-------------|------------------|
G|-2-------2--|-2---3-4---------|------------------|
D|---3---3----|---------4---4---|------------------|
A|-----3------|-----------6-----|------------------|
E|-1----------|---------------7-|------------------|



E|---------0--|-3-0-2-0---------|---------------0--|
B|---5-8-7----|-----1---1-3-0---|-----0---5-8-7----|
G|-4----------|-----2---------0-|---0---4----------|
D|------------|-----------------|-2----------------|
A|------------|-----------------|------------------|
E|-------0----|-----0-------0---|-------------0----|


E|-3-0-2-0----|-----------------|------------------|
B|---------0--|-----------------|-4-7-------7-7-7b8|
G|------------|-0-2---------2-5-|-----5---5--------|
D|------------|-----2---2-------|-------7----------|
A|------------|---0---3---0-----|---0--------------|
E|-----3------|-----------------|------------------|


E|------------|-0---------------|------------------|
B|-4-5--------|-------3-1-0-3-1-|-1-0-0------------|
G|-----4---4--|-----0-----------|-2----------------|
D|-------5----|---2-------------|-------1-2--------|
A|------------|---------2-------|-2---------2---2--|
E|---0--------|-----------------|---------0---3---0|
Tap to rate this tab
# A B C D E F G H I J K L M N O P Q R S T U V W X Y Z