Song name
# A B C D E F G H I J K L M N O P Q R S T U V W X Y Z

Nino Rota - Godfather tab

Godfather theme by Nino Rota.

This is the way I play it. It's mabye not 100% right, 
but this is my first tab and i know it's not the whole song and..stuff..
Rate & Comment..!
Email me for questions: Nullnullskyv@hotmail.com. Enjoy!

tuning: standard (EADGBe)
								      
e|--------------------------------------------------|
B|--14--13-14-15-15--14-------14b--13-14-15-14------|
G|----------------------14b-------------------14----|
D|--------------------------------------------------|
A|--------------------------------------------------|
E|--------------------------------------------------|
		      br       br        br      br
e|--------------------/\-------/\----------------/\--------|
B|---14-13-14-17----14-(14)--13-(13)-----/\----13-(13)-----|
G|-------------------------------------13-(13)----------13-|
D|---------------------------------------------------------|
A|---------------------------------------------------------|
E|---------------------------------------------------------|

e|--9-12-11-9-12-9-11--9---------------9-12-11-9-12-9-11-9----------|
B|-9---------------------10-12-9-----9---------------------9-8-7----|
G|------------------------------------------------------------------|
D|------------------------------------------------------------------|
A|------------------------------------------------------------------|
E|------------------------------------------------------------------|

e|------8-11-------8-9---------------------------8-9-----9-9-9-8-7--|
B|-7-10-------7-10----------12-10-9-12-10-10-9-9--------------------|
G|------------------------9-----------------------------------------|
D|---------------------11-------------------------------------------|
A|------------------------------------------------------------------|
E|------------------------------------------------------------------|

e|-11-11-9-------------------------8-9--|
B|---------10-9---9-12-9-7----7-10------|
G|--------------------------------------|
D|--------------------------------------|
A|--------------------------------------|
E|--------------------------------------|

Tabed by Knut A.
Tap to rate this tab
# A B C D E F G H I J K L M N O P Q R S T U V W X Y Z