Song name
# A B C D E F G H I J K L M N O P Q R S T U V W X Y Z

Nirvana - Marigold tab

Date: Sun, 7 Jan 1996 21:39:11 +0100
From: Anne Helmond 
Subject: Marigold-Nirvana tab
Tabbed by: Sem van Blerk

"Marigold" by Nirvana: this is how to play guitar 1 and 2 at the same time!

Guitar tuning:
E G# G D A E

B-string must sound the same as the 1st fret of the G = G#

Intro:
------

Bass (sounds good on guitar too)

|--------------------------------------|
|--------------------------------------|
|--5--5--2--2--2--2--0--0--1-----------|
|-----------------------------1--1--1--|

Verse:
------

Guitar

   D        B               A        Bb
|------------------------|------------------------|
|-----6--/--3~~3--3---3--|-----1--/--2~~3--2---2--|
|--7--7--/--4~~4----4----|--2--2--/--3~~3----3----|
|--7--7--/--4~~4---------|--2--2--/--3~~3---------|
|--5--------2~~2---------|--0--------1~~1---------|
|------------------------|------------------------|

Chorus:
-------

Guitar

   F                                 G
|--1---1---1---1---1---1---1---1--|--3---3---3---3---3---3---3---3--|
|--1---1---1---1---1---1---1---1--|--3---3---3---3---3---3---3---3--|
|--2---2---2---2---2---2---2---2--|--4---4---4---4---4---4---4---4--|
|--3---3---3---3---3---3---3---3--|--5---5---5---5---5---5---5---5--|
|-(3)-(3)-(3)-(3)-(3)-(3)-(3)-(3)-|-(5)-(5)-(5)-(5)-(5)-(5)-(5)-(5)-|
|-(1)-(1)-(1)-(1)-(1)-(1)-(3)-(3)-|-(3)-(3)-(3)-(3)-(3)-(3)-(3)-(3)-|

Bass:

|------------------------------------------------------------|
|------------------------------------------------------------|
|-------------------------------------------------5--5--5--5-|
|-1--1--1--1--1--1--1--1--3--3--3--3--3--3--3--3-------------|Guitar:

   D                       B                        F
|------------------------|------------------------|-(1--1--1--1--1--1--1--1)-|
|-6--6--6--6--6--6--6--6-|-3--3--3--3--3--3--3--3-|-(1--1--1--1--1--1--1--1)-|
|-7--7--7--7--7--7--7--7-|-4--4--4--4--4--4--4--4-|-(2--2--2--2--2--2--2--2)-|
|-7--7--7--7--7--7--7--7-|-4--4--4--4--4--4--4--4-|--3--3--3--3--3--3--3--3--|
|-5--5--5--5--5--5--5--5-|-2--2--2--2--2--2--2--2-|--3--3--3--3--3--3--3--3--|
|------------------------|------------------------|--1--1--1--1--1--1--1--1--|

Bass:

|------------------------------------|
|------------------------------------|
|-2--2--2--2-------------------------|
|-------------1--1--1--1--1--1--1--1-|

Lyrics:
-------

Verse:
He's there in case I want it
He's scared cause I won
He's there in case I want it all
He's scared cause I won

Chorus:
All in all the clock is slow
Six colored pictures all in a row
Of a marigold

Intro/verse/chorus/verse/chorus

Send corrections/suggestions/money to buy a Fender to:
Anne-Paulien Helmond (F.Helmond@inter.nl.net)


From: Patrick_M._Christman@Golden_BBS.goldenbbs.mv.com (Patrick M. Christman)
Date: 01 Jun 1995 00:19:48 GMT

"Marigold" by Nirvana

This song is pretty easy to play but it is a really good song. Do 
not play the full chords I have written below play them like Kurt
always used to play his chords bits and peices of each chord are 
played at a time in this song it's usually the highest three notes.
Or you can follow the tab.

Although I have the tab for the song below I would like to know who
wrote it. Was it Novaselic who came up with the base riff for the song
or did Cobain come up with the base riff for it. Also I saw someone 
asking for the bass tab to it a long while back. I'm no bassist but 
I took the root notes from the chords and it seems to do the job fine.

Once again, I highly suggest finding you're own picking rythem for this
song. It is slow but I still may have not tabbed it correctley.

####Marigold####

Verse

Gtr 1. clean
   D           B                A           F
|-------2------------------------------------------------------------------|
|-------3-----------4-----------------2------------1-----------------------|
|-----------------------4-------------2------------2----2------------------|
|--0--------------------4-------------2-----------------3------------------|
|--------------2----------------0-------------3----------------------------|
|--------------------------------------------------------------------------|

Bass 1. Clean (this is also intro riff)

|--------------------------------------------------------------------------|
|--------------------------------------------------------------------------|
|---5-----------2-------2--------0-----0---1-------------------------------|
|----------------------------------------------1----1----1-----------------|
**I still don't gaurantee the bassline is right someone repost it please.

Chorus
He might use single picking on such parts as the F but I couldn't really
tell on my unclear tape.

 F                               G                             D
-1--1----1--1----1--1----1--1----3--3----3--3----3--3----3--3-----2---2--2-|
-1--1----1--1----1--1----1--1----3--3----3--3----3--3----3--3-----3---3--3-|
-2--2----2--2----2--2----2--2----4--4----4--4----4--4----4--4-----2---2--2-|
-3--3----3--3----3--3----3--3----5--5----5--5----5--5----5--5--0-----------|
-3--3----3--3----3--3----3--3----5--5----5--5----5--5----5--5--------------|
-1--1----1--1----1--1----1--1----3--3----3--3----3--3----3--3--------------|

|--------------------------------------------------------------------------|
|--------------------------------------------------------------------------|
|--------------------------------------------------------------5--5---5--5-|
|1--1----1--1----1--1----1--1----3--3----3--3----3--3----3--3--------------|



  B                   F
|---------------------1---1----1----1----1---1---1----1--------------------|
|--------(4)--(4)-----1---1----1----1----1---1---1----1--------------------|
|------4--4----4------2---2----2----2----2---2---2----2--------------------|
|------4--4----4------3---3----3----3----3---3---3----3--------------------|
|--2------2----2------3---3----3----3----3---3---3----3--------------------|
|---------------------1---1----1----1----1---1---1----1--------------------|

|--------------------------------------------------------------------------|
|--------------------------------------------------------------------------|
|--2---2--2----2-----------------------------------------------------------|
|---------------------1---1----1----1----1---1---1----1--------------------|

Now for the lyrics:

Verses:
He's there in case I want it.
He's scared cause I won.
He's there in case I want it all.
He's scared cause I won.

Chorus:
On the wall the clock is slow. (or "all in all the clock is slow")
Six color(ed) pictures (all) in a row.
Of a marigold.

This file transcribed by the cranky buttking.

--------------------------------------------
Golden BBS         BBS: 603-886-4563                  
Nashua, NH				  Voice/Fax: 603-886-9660    
--------------------------------------------
Tap to rate this tab
 
# A B C D E F G H I J K L M N O P Q R S T U V W X Y Z