Song name
# A B C D E F G H I J K L M N O P Q R S T U V W X Y Z

Nirvana - Even In His Youth tab

Even In His Youth

Intro

e ---12-12-12-12-12-12-12------------|
b ---12-12-12-12-12-12-12------------|
g -----------------------------------|
d -----------------------------------|
a -----------------------------------|
e------------------------------------|

e -----------------------------------------------|
b -----------------------------------------------|
g -----------------------------------------------|
d ----6-6-6-6-6-6-6------------------------------|
a ----6-6-6-6-6-6-6------------------------------|
e ----4-4-4-4-4-4-4------------------------------|


e ---------------------------------------------|
b ---------------------------------------------|
g -----5--5------------------------------------|
d -----5--5---0----6--6--6---------------------|
a -----3--3---0----6--6--6---------------------|
e ------------0----4--4--4---------------------|

Chorus
 e -------------------------------------------|
 b -------------------------------------------|
 g ---------7-----------9---------------------|
 d --4------7----7------9---------------------|
 a --4------5----7------7---------------------|
 e --2-----------5----------------------------|
Tap to rate this tab
 
# A B C D E F G H I J K L M N O P Q R S T U V W X Y Z