Song name
# A B C D E F G H I J K L M N O P Q R S T U V W X Y Z

Nirvana - Curmudgeon tab


verse
-------------------------------------------------------|
--------------------7----------------------------------|
--------------------7----------------------------------|
-----8b-7-8b-7-8-3-------------------------------------|repeat many times
-----8b-7-8b-7-8-3-------------------------------------|
-------------------------------------------------------|

pre-chorus..she dont neeed!!!
-------------------------------------------------------|
-------------------------------------------------------|
--------------5-5-5-5----------------------------------|
-----2-2-2-2--5-5-5-5----------------------------------|
-----2-2-2-2--3-3-3-3----------------------------------|
-----0-0-0-0-------------------------------------------|


chorus
-------------------------------------------------------|
-------------------------------------------------------|
------------5b-5b--------------------------------------|
-------4-2--5b-5b--------------------------------------|repeat many times
-------4-2---------------------------------------------|
-------------------------------------------------------|
Tap to rate this tab
# A B C D E F G H I J K L M N O P Q R S T U V W X Y Z