Song name
# A B C D E F G H I J K L M N O P Q R S T U V W X Y Z

Nirvana - Oh The Guilt tab

Song: Oh The Guilt
Artist: Nirvana
Tuning: 1/2 step down EbAbDbGbBbEb

This is mostly right :D



Intro / Verse

E|----------------|
B|----------------|
G|-2-2-2----------|
D|-2-2-2-/6-6-6-6-|
A|-0-0-0-/6-6-6-6-|
E|-------/4-4-4-4-|

E|----------------------------------------|
B|----------------------------------------|
G|-2-2-2---2-2-2---2-2-2---2-2-2----------|
D|-2-2-2---2-2-2---2-2-2---2-2-2-/6-6-6-6-|
A|-0-0-0---0-0-0---0-0-0---0-0-0-/6-6-6-6-|
E|-------------------------------/4-4-4-4-|

E|----------------|
B|----------------|
G|-2-2-2----------|
D|-2-2-2-/6-6-6-6-|
A|-0-0-0-/6-6-6-6-|
E|-------/4-4-4-4-|

Chorus

E|---------------------------------|
B|---------------------------------|
G|-2-2-2-----------5-5-5-5---------|
D|-2-2-2-5-4-4-4-4-5-5-5-5-2-2-----|
A|-0-0-0-5-4-4-4-4-3-3-3-3-2-2-----|
E|-------3-2-2-2-2---------0-0-2-3-|

E|----------------------------------| I can't really tell
B|----------------------------------| if this is played or not
G|-2-2-2-----------5-5-5-5-/7-7-7-7-| but it sounds ok 
D|-2-2-2-5-4-4-4-4-5-5-5-5-/7-7-7-7-|        <--
A|-0-0-0-5-4-4-4-4-3-3-3-3-/5-5-5-5-|
E|-------3-2-2-2-2------------------|


that's about it. I have no idea on the solo...
Tap to rate this tab
 
# A B C D E F G H I J K L M N O P Q R S T U V W X Y Z