Song name
# A B C D E F G H I J K L M N O P Q R S T U V W X Y Z

Nirvana - My Sharona tab

   hey you little pretty one......
   -------------------------------------------------------|
   -------------------------------------------------------|
   -------------------------------------5-55-3------------|
   --------5-----5----5---5-------5--5--5-55-3------------|
   -------------------------------------3-33-1------------|
   -1/3--33----33----3---33--3--33--33--------------------|  verse


-----------------------------------------------------------|     M-m-m-m-m-m-m-my, my, my, aye-aye, whoa!
  ---------------------------------------------------------|
  ---------------------------------------------------------|
  ----5-5-5-5-5-5-5------------------------------3---------|
  ----5-5-5-5-5-5-5------------------------------3---------| and the to the
  ----3-3-3-3-3-3-3------------------------------1---------| verse
  ---------------------------------------------------------|

  --------------------------------------------------------|
  --------------------------------------------------------|
  ----5/-8/-10/-5-----------------------------------------|
  ----5/-8/-10/-5-----------------------------------------|  ending
  ----3/-6/-8/--3-----------------------------------------|
  --------------------------------------------------------|
Tap to rate this tab
# A B C D E F G H I J K L M N O P Q R S T U V W X Y Z