Song name
# A B C D E F G H I J K L M N O P Q R S T U V W X Y Z

Nirvana - Negative Creep tab

Help us improve GuitareTab! Take a short survey!
Band: Nirvana
Song: Negative Creep

Tabbed by: xXd0p3d YouthXx
Email: VeryApe92@aim.com

this is my first tab, hope you enjoy [:

Tuning: Drop D


*FEEDBACK*

e|------------------------------------------------|
B|------------------------------------------------|
G|------------------------------------------------|
D|------------------------------------------------|
A|-0-0-0-3/12-0-0-0-12\3-0-0-0-3/12-0-0-0-12\3----|
D|-0-0-0-3/12-0-0-0-12\3-0-0-0-3/12-0-0-0-12\3----|

e|------------------------------------------------|
B|------------------------------------------------|
G|------------------------------------------------|
D|------------------------------------------------|
A|-0-0-0-3/12-0-0-0-12\3-0-0-0-3/12-0-0-0-12\3----|
D|-0-0-0-3/12-0-0-0-12\3-0-0-0-3/12-0-0-0-12\3----|

e|------------------------------------------------|
B|------------------------------------------------|
G|------------------------------------------------|
D|------------------------------------------------|
A|-0-0-0-3/12-0-0-0-12\3-0-0-0-3/12-0-0-0-12\3----|
D|-0-0-0-3/12-0-0-0-12\3-0-0-0-3/12-0-0-0-12\3----|

e|----------------------------------------------------|
B|----------------------------------------------------|
G|----------------------------------------------------|
D|----------------------------------------------------|
A|-0-0-0-3/12-0-0-0-12\3-0-0-0-3/12-0-0-0-12\3--------|
D|-0-0-0-3/12-0-0-0-12\3-0-0-0-3/12-0-0-0-12\3--5b----|

e|-----------------------------------------------------|
B|-----------------------------------------------------|
G|-----------------------------------------------------|
D|-----------------------------------------------------|
A|-0-0-0-3/12-0-0-0-12\3-0-0-0-3/12-0-0-0-12\3---------|
D|-0-0-0-3/12-0-0-0-12\3-0-0-0-3/12-0-0-0-12\3--13b----|

e|-------------------------------------------------------|
B|-------------------------------------------------------|
G|-------------------------------------------------------|
D|-------------------------------------------------------|
A|-0-0-0-3/12-0-0-0-12\3-0-0-0-3/12-0-0-0-12\3-----------|
D|-0-0-0-3/12-0-0-0-12\3-0-0-0-3/12-0-0-0-12\3-x-2h3b----|

e|-------------------------------------------------------------|
B|-------------------------------------------------------------|
G|-------------------------------------------------------------|
D|-------------------------------------------------------------|
A|-0-0-0-3/12-0-0-0-12\3-0-0-0-3/12-0-0-0-12\3--12-12-12-12----|
D|-0-0-0-3/12-0-0-0-12\3-0-0-0-3/12-0-0-0-12\3--12-12-12-12----|

e|---------------------------------------|
B|---------------------------------------|
G|---------------------------------------|
D|---------------------------------------|
A|---------------------------------------|
E|-12b-12\4b-4-4--10b-10/13b-13-13\7b----|
  ^play nine times

e|----------------------------------------------------|
B|----------------------------------------------------|
G|----------------------------------------------------|
D|----------------------------------------------------|
A|-0-0-0-3/12-0-0-0-12\3-0-0-0-3/12-0-0-0-12\3--------|
D|-0-0-0-3/12-0-0-0-12\3-0-0-0-3/12-0-0-0-12\3--5b----|

e|-----------------------------------------------------|
B|-----------------------------------------------------|
G|-----------------------------------------------------|
D|-----------------------------------------------------|
A|-0-0-0-3/12-0-0-0-12\3-0-0-0-3/12-0-0-0-12\3---------|
D|-0-0-0-3/12-0-0-0-12\3-0-0-0-3/12-0-0-0-12\3--13b----|

e|-------------------------------------------------------|
B|-------------------------------------------------------|
G|-------------------------------------------------------|
D|-------------------------------------------------------|
A|-0-0-0-3/12-0-0-0-12\3-0-0-0-3/12-0-0-0-12\3-----------|
D|-0-0-0-3/12-0-0-0-12\3-0-0-0-3/12-0-0-0-12\3-x-2h3b----|

e|-------------------------------------------------------------|
B|-------------------------------------------------------------|
G|-------------------------------------------------------------|
D|-------------------------------------------------------------|
A|-0-0-0-3/12-0-0-0-12\3-0-0-0-3/12-0-0-0-12\3--12-12-12-12----|
D|-0-0-0-3/12-0-0-0-12\3-0-0-0-3/12-0-0-0-12\3--12-12-12-12----|


e|---------------------------------------|
B|---------------------------------------|
G|---------------------------------------|
D|---------------------------------------|
A|---------------------------------------|
E|-12b-12\4b-4-4--10b-10/13b-13-13\7b----|
  ^play nine times



| /  slide up
| \  slide down
| h  hammer-on
| b  bend
| x  mute note
Related for Negative Creep tab