Song name
# A B C D E F G H I J K L M N O P Q R S T U V W X Y Z

Nirvana - Pen Cap Chew tab

PEN CAP CHEW

NIRVANA

WITH THE LIGHTS OUT DISC 1

tuning: drop d

Inrto and main riff

this riff is played in a lot of different orders so just mix it up a bit

E|--------------|-------------|---------------|
B|--------------|-------------|---------------|
G|--------------|-------------|---------------|
D|--------------|-------------|---------------|
A|--2-2-2-2-----|-2-2-2-2-3sb-|-2-2-2-2-3p2---|
e|--0-0-0-0-3sb-|-0-0-0-0-----|-0-0-0-0-----5-|
  PM.......       .......       .......

then for the first verse when kurt just mumbles
play this almost completly PALM MUTED

|-----------|-----------|
|-----------|-----------|
|-----------|-----------|
|-----------|-----------|
|-2-2-2-2---|-2-2-2-2-3-|
|-0-0-0-0-3-|-0-0-0-0---|
  HEAVY PALM MUTE

Second verse(where he actually sings)

E|--------------|-------------|---------------|
B|--------------|-------------|---------------|
G|--------------|-------------|---------------|
D|--------------|-------------|---------------|
A|--2-2-2-2-----|-2-2-2-2-3sb-|-2-2-2-2-3p2---|
e|--0-0-0-0-3sb-|-0-0-0-0-----|-0-0-0-0-----5-|
  PM.......       .......       .......

CHORUS

|----------------------------------------|
|----------------------------------------|
|---------------------------5-5-5/8-8-8--|
|--9-9-7-7-4-4-7-7-2-2-5-5--5-5-5/8-8-8--|
|--9-9-7-7-4-4-7-7-2-2-5-5--3-3-3/6-6-6--|
|--7-7-5-5-2-2-5-5-0-0-3-3---------------|

by alex dewar
Tap to rate this tab
# A B C D E F G H I J K L M N O P Q R S T U V W X Y Z