Guitaretab - guitar tabs
Song name
# A B C D E F G H I J K L M N O P Q R S T U V W X Y Z

Nirvana - Smells Like Teen Spirit tab

t. See http://www.olga.net/faq/ for more information.                     #
#-----------------------------------------------------------------------------#

Date: Sat, 22 Apr 2000 22:56:11 -0400
From: "jason dorick" 
Subject: n/nirvana/smells_like_teen_spirit.tab

I hope this transcription helps you out. I think it's pretty good cause I've 
been playing for a while.  Please add your own little things to the song to 
keep the music alive.  Have fun.



Riff 1 (Intro/chorus)     -- xxx-111-xxx-------/444-xxx-------
                          -- xxx-333-xxx-111---/666-xxx-444---
                          -- xxx-333-xxx-333---/666-xxx-444---
                          ---------------333------------666---
                          ------------------------------------
                          ------------------------------------

           Load up on guns, bring your friends It's fun to lose and to       
      pretend...
Riff 2 (verse)    ------
                  ------
                  ------
                  ------
                  ---1--
                  ----1-

                        Hello hello hello how low
Riff 3 (pre chorus)     --------------------
                        --------------------
                        --------------------
                        --1-0-1-0-1-0-1p0---
                        ------------------3-
                        --------------------

           Verse= Riff 1
           Repeat...

Solo (after verse2)  ------------------------------------------
                     -1-4/6-4-6b(8)r6-2-1-2-1------------------
                     ------1-----------------3-1-3-5b(7)r5-1-0-
                     ------------------------------------------
                     ------------------------------------------
                     ------------------------------------------

           --------------------------------------------
           --1-4/6-1-4-6b(8)r6-2-1-2-1-----------------
           -------1-------------------3p1-1-3-5b(7)r5--
           --------------------------------------------
           --------------------------------------------
           --------------------------------------------
Notation Guide:
/=slide
p=pull-off
b=bend
(#)=bend until it sounds like the note on this fret
r=return bend to note
PS:to make this song sound good, at a chorus pedal!! and play it faster(like 
on Muddy Banks:)bye bye
________________________________________________________________________
[ Tab from: http://www.guitaretab.com/n/nirvana/13456.html ]
Related for Smells Like Teen Spirit tab
×
Best way to learn
"Smells Like Teen Spirit"