Song name
# A B C D E F G H I J K L M N O P Q R S T U V W X Y Z

Nirvana - Dive tab

guitar intro

E|--------------------------------------------------------------------------------------|
B|--------------------------------------------------------------------------------------|
G|-------------------------------------------------------------------------------9--9---|
D|------4------0--------4--------4--------0--------4---------2----2-----2--------9--9---|
A|------2------0--------4--------4--------0--------4---------2----2-----2--------7--7---|
E|------2------0--------2--------2--------0--------2---------0----0-----0---------------|

 Verse

E|--------------------------------------------------------------------------------------|
B|--------------------------------------------------------------------------------------|
G|--------------------------------------------------------------------------------------|
D|-----------------------------4--------------------------------------------------------|
A|--------------------------------------------------------------------------------------|
E|-----2-------2-------4----------------------------------------------------------------|

 Chorus

E|--------------------------------------------------------------------------------------|
B|--------------------------------------------------------------------------------------|
G|---4--4--4--6--6--6--------------------------------------------------9--9--------------
D|---4--4--4--4--4--4--5--5--5--2--2--2-----4--0--4--4--0--4--2--2--2--9--9--------------
A|---2--2--2--4--4--4--5--5--5--2--2--2-----4--0--4--4--0--4--2--2--2--7--7-------------
E|---------------------3--3--3--0--0--0-----2--0--2--2--0--2--0--0--0--------------------

  Solo

E|----------------------------------------------|
B|----------------------------------------------|
G|--------------------------3--1--3--1--3--1----|
D|--------------------------------------------2-|
A|--3--1--3--1--3--1--3-------------------------|
E|-----------------------2----------------------|
Tap to rate this tab
 
# A B C D E F G H I J K L M N O P Q R S T U V W X Y Z