Song name
# A B C D E F G H I J K L M N O P Q R S T U V W X Y Z

Nirvana - About A Girl tab

E-------0-0-3-3-3--------0-0-3-3-3---------0-0-3-3-3---0-0-0-0-3-3-3- 
B-------0-0-0-0-0--------0-0-0-0-0---------0-0-0-0-0---0-0-0-0-0-0-0- 
G---0---0-0-0-0-0---0----0-0-0-0-0----0----0-0-0-0-0---0-0-0-0-0-0-0- X4 
D---2---2-2-0-0-0---2----2-2-0-0-0----2----2-2-0-0-0---2-2-2-2-0-0-0- 
A---2---2-2-2-2-2---2----2-2-2-2-2----2----2-2-2-2-2---2-2-2-2-2-2-2- 
E---0---0-0-3-3-3---0----0-0-3-3-3----0----0-0-3-3-3---0-0-0-0-3-3-3- 

E----------------------------------------------------------------- 
B----------------------------------------------------------------- 
G---6--6-6--------------------------6--6-6------------------------ 
D---6--6-6--6--6-6--4--4-4--4-4-4---6--6-6--6--6-6--4--4-4--4-4-4- 
A---4--4-4--6--6-6--4--4-4--4-4-4---4--4-4--6--6-6--4--4-4--4-4-4- 
E-----------4--4-4--2--2-2--2-2-2-----------4--4-4--2--2-2--2-2-2- 

E-------0-0--0-0-0------------------- 
B-------0-0--0-0-0------------------- 
G---0---0-0--0-0-0---2---2-5-5-5-5-5- 
D---2---2-2--2-2-2---2---2-5-5-5-5-5- 
A---2---2-2--2-2-2---0---0-3-3-3-3-3- 
E---0---0-0--0-0-0------------------- 

E-------0-0-3-3-3--------0-0-3-3-3---------0-0-3-3-3---0-0-0-0-3-3-3- 
B-------0-0-0-0-0--------0-0-0-0-0---------0-0-0-0-0---0-0-0-0-0-0-0- 
G---0---0-0-0-0-0---0----0-0-0-0-0----0----0-0-0-0-0---0-0-0-0-0-0-0- X3 
D---2---2-2-0-0-0---2----2-2-0-0-0----2----2-2-0-0-0---2-2-2-2-0-0-0- 
A---2---2-2-2-2-2---2----2-2-2-2-2----2----2-2-2-2-2---2-2-2-2-2-2-2- 
E---0---0-0-3-3-3---0----0-0-3-3-3----0----0-0-3-3-3---0-0-0-0-3-3-3- 

E----------------------------------------------------------------- 
B----------------------------------------------------------------- 
G---6--6-6--------------------------6--6-6------------------------ 
D---6--6-6--6--6-6--4--4-4--4-4-4---6--6-6--6--6-6--4--4-4--4-4-4- 
A---4--4-4--6--6-6--4--4-4--4-4-4---4--4-4--6--6-6--4--4-4--4-4-4- 
E-----------4--4-4--2--2-2--2-2-2-----------4--4-4--2--2-2--2-2-2- 

E-------0-0--0-0-0------------------- 
B-------0-0--0-0-0------------------- 
G---0---0-0--0-0-0---2---2-5-5-5-5-5- 
D---2---2-2--2-2-2---2---2-5-5-5-5-5- 
A---2---2-2--2-2-2---0---0-3-3-3-3-3- 
E---0---0-0--0-0-0------------------- 

E-------0-0-3-3-3--------0-0-3-3-3---------0-0-3-3-3---0-0-0-0-3-3-3- 
B-------0-0-0-0-0--------0-0-0-0-0---------0-0-0-0-0---0-0-0-0-0-0-0- 
G---0---0-0-0-0-0---0----0-0-0-0-0----0----0-0-0-0-0---0-0-0-0-0-0-0- 
D---2---2-2-0-0-0---2----2-2-0-0-0----2----2-2-0-0-0---2-2-2-2-0-0-0- 
A---2---2-2-2-2-2---2----2-2-2-2-2----2----2-2-2-2-2---2-2-2-2-2-2-2- 
E---0---0-0-3-3-3---0----0-0-3-3-3----0----0-0-3-3-3---0-0-0-0-3-3-3- 

Solo 
E------------------------------------- 
B----------------6s9--9-9--9s12-12-12- 
G----------------6s9--9-9--9s12-12-12- X4 
D----------5h6-6-6s9--9-9--9s12-12-12- 
A------5h6---------------------------- 
E---0--------------------------------- 

More Distorted 
E----------------------------------------------------------------- 
B----------------------------------------------------------------- 
G---6--6-6--------------------------6--6-6------------------------ 
D---6--6-6--6--6-6--4--4-4--4-4-4---6--6-6--6--6-6--4--4-4--4-4-4- 
A---4--4-4--6--6-6--4--4-4--4-4-4---4--4-4--6--6-6--4--4-4--4-4-4- 
E-----------4--4-4--2--2-2--2-2-2-----------4--4-4--2--2-2--2-2-2- 

E-------0-0--0-0-0------------------- 
B-------0-0--0-0-0------------------- 
G---0---0-0--0-0-0---2---2-5-5-5-5-5- 
D---2---2-2--2-2-2---2---2-5-5-5-5-5- 
A---2---2-2--2-2-2---0---0-3-3-3-3-3- 
E---0---0-0--0-0-0------------------- 

E-------0-0-3-3-3--------0-0-3-3-3---------0-0-3-3-3---0-0-0-0-3-3-3- 
B-------0-0-0-0-0--------0-0-0-0-0---------0-0-0-0-0---0-0-0-0-0-0-0- 
G---0---0-0-0-0-0---0----0-0-0-0-0----0----0-0-0-0-0---0-0-0-0-0-0-0- X3 
D---2---2-2-0-0-0---2----2-2-0-0-0----2----2-2-0-0-0---2-2-2-2-0-0-0- 
A---2---2-2-2-2-2---2----2-2-2-2-2----2----2-2-2-2-2---2-2-2-2-2-2-2- 
E---0---0-0-3-3-3---0----0-0-3-3-3----0----0-0-3-3-3---0-0-0-0-3-3-3- 

E----------------------------------------------------------------- 
B----------------------------------------------------------------- 
G---6--6-6--------------------------6--6-6------------------------ 
D---6--6-6--6--6-6--4--4-4--4-4-4---6--6-6--6--6-6--4--4-4--4-4-4- 
A---4--4-4--6--6-6--4--4-4--4-4-4---4--4-4--6--6-6--4--4-4--4-4-4- 
E-----------4--4-4--2--2-2--2-2-2-----------4--4-4--2--2-2--2-2-2- 

E-------0-0--0-0-0------------------- 
B-------0-0--0-0-0------------------- 
G---0---0-0--0-0-0---2---2-5-5-5-5-5- 
D---2---2-2--2-2-2---2---2-5-5-5-5-5- 
A---2---2-2--2-2-2---0---0-3-3-3-3-3- 
E---0---0-0--0-0-0------------------- 

E-------0-0--0-0-0----------------------------------------- 
B-------0-0--0-0-0----------------------------------------- 
G---0---0-0--0-0-0---2---2-5-5-5-5-5-5-5-5-5-5-5-5-5-5-5-5- 
D---2---2-2--2-2-2---2---2-5-5-5-5-5-5-5-5-5-5-5-5-5-5-5-5- 
A---2---2-2--2-2-2---0---0-3-3-3-3-3-3-3-3-3-3-3-3-3-3-3-3- 
E---0---0-0--0-0-0----------------------------------------- 

E-------0-0-3-3-3--------0-0-3-3-3---------0-0-3-3-3---0-0-0-0-3-3-3- 
B-------0-0-0-0-0--------0-0-0-0-0---------0-0-0-0-0---0-0-0-0-0-0-0- 
G---0---0-0-0-0-0---0----0-0-0-0-0----0----0-0-0-0-0---0-0-0-0-0-0-0- X2 
D---2---2-2-0-0-0---2----2-2-0-0-0----2----2-2-0-0-0---2-2-2-2-0-0-0- 
A---2---2-2-2-2-2---2----2-2-2-2-2----2----2-2-2-2-2---2-2-2-2-2-2-2- 
E---0---0-0-3-3-3---0----0-0-3-3-3----0----0-0-3-3-3---0-0-0-0-3-3-3- 

E---0------ 
B---0------ 
G---0-ring- 
D---2------ 
A---2------ 
E---0------ 

 
 
Tap to rate this tab
# A B C D E F G H I J K L M N O P Q R S T U V W X Y Z