Song name
# A B C D E F G H I J K L M N O P Q R S T U V W X Y Z

Nirvana - About A Girl tab

props go 2 the guy that orginally dne this i just pasted it and changed it a bit

Intro:
Em  G  Em  G Em G Em  G  Em  G Em G 

Em G      Em    G
I need an easy friend
Em   G      Em      G
I do with a ear to lend
Em   G         Em       G
I do think you fit this shoe
Em   G        Em     G
I do what you have a clue

         (#1)
I'll take advantage while
         (#1)
You hang me out to dry
         
             (#1)
e|--------------------------|
B|--------------------------|
G|--6--6--------------------|
D|--6--6--6---4-4--4--4-4---|
A|--4--4--6---4-4--4--4-4---|
E|--------4---2-2--2--2-2---|
       
     E5    A5     C5         Em  G Em G
But I can't see you every night free
Em  G  Em  G Em G
I do
   
 (play same as last verse)
I'm standing in your light
I do hope you have the time
I do pick up number two
I do keep a date with you

             (#1)
I'll take advantage while
             (#1)
You hang me out to dry
      E5    A5      C5        Em  G  Em  G
But I can't see you every night free
Em  G  Em  G Em G


(SOLO)
e|------------------------------------|
B|------------------------------------|
G|---------5-7/-----9-9-9--/--12-12-12|X4
D|-2-/-5-7-----------------/--12-12-12|
A|-2----------------------------------|
E|-0----------------------------------|
(Straight after solo)
e|--------------------------|
B|--------------------------|
G|--6--6--------------------|x2
D|--6--6--6---4-4--4--4-4---|
A|--4--4--6---4-4--4--4-4---|
E|--------4---2-2--2--2-2---|
E5 A5 C5

Em  G  Em  G Em G Em  G  Em  

Em G      Em    G
I need an easy friend
Em   G      Em      G
I do with a ear to lend
Em   G         Em       G
I do think you fit this shoe
Em   G        Em     G
I do what you have a clue

           (#1) 
I'll take advantage while
           (#1)
You hang me out to dry
     E5    A5        C5               E5         A5         C5      Em G Em G Em G
But I can't see you every night But I can't see you every night...free
Em  G  Em  G Em G Em  G  Em  G Em G 
I do...... I do........ I do........ I do

  E5 A5 C5
e-X--X--X-
B-X--X--X-
G-X--2--5-
D-2--2--5-
A-2--0--3-
E-0--X--X-
Tap to rate this tab
# A B C D E F G H I J K L M N O P Q R S T U V W X Y Z